The Black Mages Vamo Alla Flamenco

Share Button


Toutes les tablatures sont ici  http://guitarepourdebutant.fr/tablatures-faciles/

 

The Black Mages  Vamo Alla Flamenco

 



e|---0------------0------------0------------0----------------------------------|
B|---1------------1------------1------------1----------------------------------|
G|---2------------2------------2------------2----------------------------------|
D|---2------------3------------4------------3----------------------------------|
A|---0------------0------------0------------0----------------------------------|
E|-----------------------------------------------------------------------------|

e|---------------------------------------------------------------------------|
B|---------------------------------------------------------------------------|
G|--4----5----7----9-~-------9----10----12----14-~--------17-~------16-~-----|
D|---------------------------------------------------------------------------|
A|---------------------------------------------------------------------------|
E|---------------------------------------------------------------------------|

e|---------------------------------------------------------------------------|
B|---------------------------------------------------------------------------|
G|--16----14----12----10-------12-------9h-10p-9-7h-9------------------------|
D|---------------------------------------------------------------------------|
A|---------------------------------------------------------------------------|
E|---------------------------------------------------------------------------|

e|------------8--7-----7-~--------------------------8--7-----10--------------|
B|--10--9--10-------9--------9-----7--9----9--7--9--------9------12----------|
G|------------------------------9------------------------------------12------|
D|---------------------------------------------------------------------------|
A|---------------------------------------------------------------------------|
E|---------------------------------------------------------------------------|

e|---------------12--10------10----------------------------------------------|
B|--13--12--13-----------12-------12------10--12--13--12----10--9--10---X2---|
G|------------------------------------12-------------------------------------|
D|---------------------------------------------------------------------------|
A|---------------------------------------------------------------------------|
E|---------------------------------------------------------------------------|

e|--------0--5--4--2--1--0--1----0--1--0--------0----------------------------|
B|-----2-----------------------3----------1--3-----3------1--3---------------|
G|--2---------------------------------------------------3--------------------|
D|---------------------------------------------------------------------------|
A|---------------------------------------------------------------------------|
E|---------------------------------------------------------------------------|

e|--------0--5--4--2--1--0--1-----0--1--3----0--0--1--3--5--4--5/8--7--5--4~-|
B|-----2-----------------------3---------------------------------------------|
G|--2------------------------------------------------------------------------|
D|---------------------------------------------------------------------------|
A|---------------------------------------------------------------------------|
E|---------------------------------------------------------------------------|

e|--4h-5p-4p-2h-4~-----------------------------------------------------------|
B|---------------------------------------------------------------------------|
G|---------------------------------------------------------------------------|
D|---------------------------------------------------------------------------|
A|---------------------------------------------------------------------------|
E|---------------------------------------------------------------------------|

e|--------0--5----5-----------5----5--7--5--7--5-----------5--5--------------|
B|-------------------9--7--9----------------------9--7--9--------------------|
G|--5------------------------------------------------------------------------|
D|---------------------------------------------------------------------------|
A|---------------------------------------------------------------------------|
E|---------------------------------------------------------------------------|

e|--------0--5----5-----------5----5--10--8--7--5--7--5--4~------------------|
B|-------------------9--7--9-------------------------------------------------|
G|--5------------------------------------------------------------------------|
D|---------------------------------------------------------------------------|
A|---------------------------------------------------------------------------|
E|---------------------------------------------------------------------------|

e|---------------------------------------------------------------------------|
B|---------------------------------------------------------------------------|
G|---------------------------------------------------------------------------|
D|---------------------------------------------------------------------------|
A|--7--7--7--7~-------5----3----2~-------------------------------------------|
E|---------------------------------------------------------------------------|

| /  slide up
| \  slide down
| h  hammer-on
| p  pull-off
| ~  vibrato
| +  harmonic
| x  Mute note
===============================================================================

Soyez le premier à commenter

Poster un Commentaire

Votre adresse de messagerie ne sera pas publiée.




Time limit is exhausted. Please reload CAPTCHA.