The Lumineers Ho hey

Share Button

The Lumineers Ho hey

Toutes les tablatures sont ici  http://guitarepourdebutant.fr/tablatures-faciles/

 

-----|---------------------|--|-----------------------------------------------|
-----|---------------------|--|-----------------------------------------------|
-----|---5-----5--------5--|--|-----------------------------------------------|
-----|---------5--------5--|--|-----------------------------------------------|
-----|-8-8-7------7-7-7----|--|-----------------------------------------------|
-----|---------------------|--|-----------------------------------------------|

-----|-----------------------------------------------------------------|------|
-----|-----------------------------------------------------------------|------|
-----|---5-----5--------5--5-5-5----5--5-5-5-5-7p5-7p5-5---5--------5--|------|
-----|---------5--------5--5-5-5-7--7--7-7-x-x---------5---5--------5--|------|
-----|-8-8-7------7-7-7----------7---------8-8-8---8----------7-7-7----|------|
-----|-----------------------------------------------------------------|------|

-----|-------------------------------|--|-------------------------------------|
-----|-------------------------------|--|-------------------------------------|
-----|-5------5------4------5--------|--|-------------------------------------|
-----|-5------7------5------5--------|--|-------------------------------------|
-----|-7------7------5------7--------|--|-------------------------------------|
-----|-------------------------------|--|-------------------------------------|

-----|----------------|--|----------------------------------------------------|
-----|----------------|--|----------------------------------------------------|
-----|-5------5-------|--|----------------------------------------------------|
-----|-3------5-------|--|----------------------------------------------------|
-----|-3------7-------|--|----------------------------------------------------|
-----|----------------|--|----------------------------------------------------|

Soyez le premier à commenter

Poster un Commentaire

Votre adresse de messagerie ne sera pas publiée.




Time limit is exhausted. Please reload CAPTCHA.