Thème cinéma : Délivrance

Share Button

Thème cinéma : Délivrance ( adaptation pour guitare )

Toutes les tablatures sont ici  http://guitarepourdebutant.fr/tablatures-faciles/

 


E|-------------------------------------------------------------------||
B|-----------------------0-1-3-0-1---0-------------------------------||
G|-4-5-7-4-5---4-------------------2---0-2---------------------------||
D|-----------7---5-7-----------------------------------4---4---------||
A|-----------------------------------------------5-5-7---5---7-------||
E|---------------------------------------------5---------------------||

E|---------2---2-----||
B|---3-3-5---3---5---||
G|-2-----------------||
D|-------------------||
A|-------------------||
E|-------------------||

E|-------------------------------------------------------------------||
B|-------------------------------0-1-3-1-0---------------------------||
G|-----------------------0-0-0-2---------------------------0---------||
D|-------------0-------------------------------------0-2-3---3-2-----||
A|-------0-2-3---3-2---------------------------3-3-3-----------------||
E|-3-3-3-------------------------------------------------------------||

E|---------0-1-3-1-0-------------------------------------------------||
B|-1-1-1-3---------------------------------------------0-1-3-1-0-----||
G|---------------------------------------------0-0-0-2---------------||
D|-----------------------------------0-------------------------------||
A|-----------------------------0-2-3---3-2---------------------------||
E|-----------------------3-3-3---------------------------------------||

E|-----------------------------0-2-3-5-3-2---||
B|-----------0-1-0-------3-3-3---------------||
G|-0-0-0-2-4-------4-------------------------||
D|-------------------------------------------||
A|-------------------------------------------||
E|-------------------------------------------||

E|---------------3-----------------------------3---------------------||
B|-------1-0-------3-3-5-3-----------1-0------3----5-3---------------||
G|---0---0-0-----------5-4-------0---0-0-----4-----5-4---------------||
D|-0---0-2-0-------------------0---0-2-0-----------------------------||
A|-------------------------------------------------------------------||
E|-------------------------------------------------------------------||

E|-3-------------3-------------3-------------3-----------------------||
B|-0-0-0-1-0-----3-3-3-5-3-----0-0-0-1-0-----3-3-3-5-3---------------||
G|-0-0-0-0-0-----4-4-4-5-4-----0-0-0-0-0-----4-4-4-5-4---------------||
D|-0-0-0-2-0-------------------0-0-0-2-0-----------------------------||
A|-------------------------------------------------------------------||
E|-------------------------------------------------------------------||

Soyez le premier à commenter

Poster un Commentaire

Votre adresse de messagerie ne sera pas publiée.




Time limit is exhausted. Please reload CAPTCHA.