Archives

Liens commerciaux

Les 14 sujets les plus lus

U2 Bloody Sunday

Share Button

Tablature facile u2  Bloody Sunday

Imprimer cette tablature Imprimer cette tablature
  |----------2------------2-----------0------------0-----------|
B |-------3-----3-----3------3-----3-----3-----3------3--------|
G |---4------------2------------0-----------0------------------|
D |------------------------------------------------------------|
A |------------------------------------------------------------|
E |------------------------------------------------------------|

e |----------2------------2-----------0------------0-----------|
B |-------3-----3-----3------3-----3-----3-----3------3--------|
G |---4------------2------------0-----------0------------------|
D |------------------------------------------------------------|
A |------------------------------------------------------------|
E |------------------------------------------------------------|

e |----------2------------2-----------0------------0-----------|
B |-------3-----3-----3------3-----3-----3-----3------3--------|
G |---4-----------2------------0-----------0-------------------|
D |------------------------------------------------------------|
A |------------------------------------------------------------|
E |------------------------------------------------------------|

e |----------2------------2-----------0------------0-----------|
B |-------3-----3-----3------3-----3-----3-----3------3--------|
G |---4-----------2------------0-----------0-------------------|
D |------------------------------------------------------------|
A |------------------------------------------------------------|
E |------------------------------------------------------------|

Riff 2
e |------------2--------2---------------0------------------|
B |---------3-----3--------3---------0----0----------------|
G |------2-----------2------------0-----------0------------|
D |---0------------------------2------------------2--------|
A |---------------------------------------------------2----|
E |--------------------------------------------------------|

|------------2--------2---------------3------------------------3---------3-------| 
|---------3-----3--------3--------3-----3------------------3-----3---------3-----| 
|------2-----------2-----------0------------0-----------0------------0-----------| 
|---0-------------------------------------------0--------------------------------|
|--------------------------------------------------------------------------------| 
|----------------------------3---------------------3--3--------------------------|

e |----------2------------2-----------0------------0-----------|
B |-------3-----3-----3------3-----3-----3-----3------3--------|
G |---4-----------2------------0-----------0-------------------|
D |------------------------------------------------------------|
A |------------------------------------------------------------|
E |------------------------------------------------------------|

e |----------2------------2-----------0------------0-----------|
B |-------3-----3-----3------3-----3-----3-----3------3--------|
G |---4-----------2------------0-----------0-------------------|
D |------------------------------------------------------------|
A |------------------------------------------------------------|
E |------------------------------------------------------------|

e |----------2------------2-----------0------------0-----------|
B |-------3-----3-----3------3-----3-----3-----3------3--------|
G |---4-----------2------------0-----------0-------------------|
D |------------------------------------------------------------|
A |------------------------------------------------------------|
E |------------------------------------------------------------|

e |----------2------------2-----------0------------0-----------|
B |-------3-----3-----3------3-----3-----3-----3------3--------|
G |---4-----------2------------0-----------0-------------------|
D |------------------------------------------------------------|
A |------------------------------------------------------------|
E |------------------------------------------------------------|

e |----------2------------2-----------0------------0-----------|
B |-------3-----3-----3------3-----3-----3-----3------3--------|
G |---4-----------2------------0-----------0-------------------|
D |------------------------------------------------------------|
A |------------------------------------------------------------|
E |------------------------------------------------------------|

e |----------2------------2-----------0------------0-----------|
B |-------3-----3-----3------3-----3-----3-----3------3--------|
G |---4-----------2------------0-----------0-------------------|
D |------------------------------------------------------------|
A |------------------------------------------------------------|
E |------------------------------------------------------------|

e |----------2------------2-----------0------------0-----------|
B |-------3-----3-----3------3-----3-----3-----3------3--------|
G |---4-----------2------------0-----------0-------------------|
D |------------------------------------------------------------|
A |------------------------------------------------------------|
E |------------------------------------------------------------|

e |----------2------------2-----------0------------0-----------|
B |-------3-----3-----3------3-----3-----3-----3------3--------|
G |---4-----------2------------0-----------0-------------------|
D |------------------------------------------------------------|
A |------------------------------------------------------------|
E |------------------------------------------------------------|

Riff 3 
e |---------------------------------------------------|
B |----------------7--------------------7-------------|
G |-------------5-----7-------------5-----7-----------|
D |------5--5----------------5--5---------------------|
A |---5-------------------5---------------------------|
E |---------------------------------------------------|

e |---------------------------------------------------|
B |----------------7--------------------7-------------|
G |-------------5-----7-------------5-----7-----------|
D |------5--5----------------5--5---------------------|
A |---5-------------------5---------------------------|
E |---------------------------------------------------|

e |----------2------------2-----------0------------0-----------|
B |-------3-----3-----3------3-----3-----3-----3------3--------|
G |---4-----------2------------0-----------0-------------------|
D |------------------------------------------------------------|
A |------------------------------------------------------------|
E |------------------------------------------------------------|

e |----------2------------2-----------0------------0-----------|
B |-------3-----3-----3------3-----3-----3-----3------3--------|
G |---4------------2------------0-----------0------------------|
D |------------------------------------------------------------|
A |------------------------------------------------------------|
E |------------------------------------------------------------|

e |----------2------------2-----------0------------0-----------|
B |-------3-----3-----3------3-----3-----3-----3------3--------|
G |---4-----------2------------0-----------0-------------------|
D |------------------------------------------------------------|
A |------------------------------------------------------------|
E |------------------------------------------------------------|

e |----------2------------2-----------0------------0-----------|
B |-------3-----3-----3------3-----3-----3-----3------3--------|
G |---4------------2------------0-----------0------------------|
D |------------------------------------------------------------|
A |------------------------------------------------------------|
E |------------------------------------------------------------|

e |----------2------------2-----------0------------0-----------|
B |-------3-----3-----3------3-----3-----3-----3------3--------|
G |---4-----------2------------0-----------0-------------------|
D |------------------------------------------------------------|
A |------------------------------------------------------------|
E |------------------------------------------------------------|

e |----------2------------2-----------0------------0-----------|
B |-------3-----3-----3------3-----3-----3-----3------3--------|
G |---4------------2------------0-----------0------------------|
D |------------------------------------------------------------|
A |------------------------------------------------------------|
E |------------------------------------------------------------|

e |----------2------------2-----------0------------0-----------|
B |-------3-----3-----3------3-----3-----3-----3------3--------|
G |---4-----------2------------0-----------0-------------------|
D |------------------------------------------------------------|
A |------------------------------------------------------------|
E |------------------------------------------------------------|

e |----------2------------2-----------0------------0-----------|
B |-------3-----3-----3------3-----3-----3-----3------3--------|
G |---4------------2------------0-----------0------------------|
D |------------------------------------------------------------|
A |------------------------------------------------------------|
E |------------------------------------------------------------|

e |---2---2---------------0---0----------------------------|
B |---3---3---------------0---0----------------------------|
G |---2---2---------------0---0----------------------------|
D |---0---0---------------2---2----------------------------|
A |------------------------2---2---------------------------|
E |------------------------x---x---------------------------|

e |---2---2---------------3---3----------------------------|
B |---3---3---------------3---3----------------------------|
G |---2---2---------------0---0----------------------------|
D |---0---0---------------0---0----------------------------|
A |------------------------2---2---------------------------|
E |------------------------3---3---------------------------|

Riff 4 
|---2------x------x------x------3------x--------------------------------------| 
|---3------x------7------x------3------x--------------------------------------| 
|---4------x------7------x------4------x--------------------------------------| 
|---4------x------7------x------5------x--------------------------------------| 
|---2------x------5------x------5------x--------------------------------------| 
|---2------x------x------x------3------x--------------------------------------|

|---2------x------x------x------3------x--------------------------------------| 
|---3------x------7------x------3------x--------------------------------------| 
|---4------x------7------x------4------x--------------------------------------| 
|---4------x------7------x------5------x--------------------------------------| 
|---2------x------5------x------5------x--------------------------------------| 
|---2------x------x------x------3------x--------------------------------------|

|---2------x------x------x------3------x--------------------------------------| 
|---3------x------7------x------3------x--------------------------------------| 
|---4------x------7------x------4------x--------------------------------------| 
|---4------x------7------x------5------x--------------------------------------| 
|---2------x------5------x------5------x--------------------------------------| 
|---2------x------x------x------3------x--------------------------------------|

|---2------x------x------x------3------x--------------------------------------| 
|---3------x------7------x------3------x--------------------------------------| 
|---4------x------7------x------4------x--------------------------------------| 
|---4------x------7------x------5------x--------------------------------------| 
|---2------x------5------x------5------x--------------------------------------| 
|---2------x------x------x------3------x--------------------------------------|