U2 – Heartland

Share Button


 

U2 – Heartland

Toutes les tablatures sont ici  http://guitarepourdebutant.fr/tablatures-faciles/

      
e|------------------------------------------------------|
b|--11-----------13-11----8---6-------------11-11-------|
g|--10--------------------7---5-------------10----------|
D|--10--------------------7---5-------------10----------|
A|------------------------------------------------------|
E|------------------------------------------------------|

e|------------------------------------------------------|
b|-13-11--------8-8--- 6-6----------------11------------|
g|--------10----7------5------------------10------------|
D|--------------7------5------------------10------------|
A|------------------------------------------------------|
E|------------------------------------------------------|

e|-------------------------------------------------------------------------|
b|----10-----------------10------8---------10----------10-----8----10------|
g|-------------------------------------------------------------------------|
D|-12-----------------12------10--------12----------12-----10----12--------|
A|-------------------------------------------------------------------------|
E|-------------------------------------------------------------------------|

e|-------------------------------------------------------------|
b|------------10-------8--------10--------------10------8------|
g|-------------------------------------------------------------|
D|---------12-------10-------12--------------12------10--------|
A|-------------------------------------------------------------|
E|-------------------------------------------------------------|

e|-------------------------------------------------------------------|
b|------6------------------------------------8----------8------------|
g|---5--------------------5-----5------------------------------------|
D|8--------------------8----7--------------10---------10-------------|
A|-------------------------------------8-10------8-10----------------|
E|-------------------------------------------------------------------|

e|---------------------------------------------------------------|
b|--------6-------------------------------------8----------8-----|
g|------5----------------5------5--------------------------------|
D|----8----------------8----7----------------10---------10-------|
A|---------------------------------------8-10-------8-10---------|
E|---------------------------------------------------------------|

e|-------------------------------------------------------------------------|
b|---10----------10------8-----------------10-----------10----8----10------|
g|-------------------------------------------------------------------------|
D|12----------12------10----------------12------------12---10----12--------|
A|-------------------------------------------------------------------------|
E|-------------------------------------------------------------------------|

e|------------------------------------------------------|
b|------------10-------8------10----------10----8-------|
g|------------------------------------------------------|
D|---------12-------10-----12----------12----10---------|
A|------------------------------------------------------|
E|------------------------------------------------------|

e|-------------------------------------------------------------|
b|------6-------------------------------8------------8---------|
g|---5-------------5-----5-------------------------------------|
D|8--------------8----7---------------10---------10------------|
A|-------------------------------8-10-------8-10---------------|
E|-------------------------------------------------------------|

e|---------------------------------------------------------------|
b|------6-------------------------------8------------8---<8> <6>-|
g|---5-------------5-----5---------------------------------------|
D|8-------------8----7---------------10---------10---------------|
A|-------------------------------8-10-------8-10-----------------|
E|---------------------------------------------------------------|

e|--8----8----8---8----8---8---8---8---8---8---8---8-------|  
b|--X----X----X---X----X---X --X --X --X --X --X --X ------| 
g|--10---10---10--10---10--10--10--10--10--10--10--10------|  
D|---------------------------------------------------------| 
A|---------------------------------------------------------|  
E|---------------------------------------------------------|  

e|-----------------------------------------------|
b|13-11----------------------------13--11--------|
g|-------10---------------------------------10---|
D|------------19------17-----15------------------|
A|-------------------------------15--------------|
E|-----------------------------------------------|

e|--------------------------------------------------------------------| 
b|3-3--1-3v-----------------------------------------------------------| 
g|------—------------------------10-----------------------------------|
D|----------------------------------12-10h12v----------(10)--10--10h12| 
A|--------------------------------------------------------------------| 
E|--------------------------------------------------------------------| 

e|-------------------------------------------------------------------|
b|-------------------------------------------------------------------| 
g|-------------------------5--5-----7--------------------------------| 
D|-------------------------------------------------------------------|
A|-------------------------------------------------------------------| 
E|-------------------------------------------------------------------|

  distortion
e|-------------------------------------------------------------------|
b|-------------------------------------------------------------------|
g|-------------------------------------------------------------------| 
D|---------------------------------------5b7v------------------------|
A|-------------------------------------------------------------------|
E|-------------------------------------------------------------------|

e|-------------------------------------------------------------------|
b|-----------------------------------------------6--6--8-------------| 
g|------------------------5--5--7------7-----------------------------| 
D|-------------------------------------------------------------------|
A|-------------------------------------------------------------------| 
E|-------------------------------------------------------------------|

e|--------------------------------------------------------------|
b|------6-------------------------------8---------8-------------|
g|---5-------------5-----5--------------------------------------|
D|8--------------8----7---------------10--------10--------------|
A|--------------------------------8-10------8-10----------------|
E|--------------------------------------------------------------|

e|-------------------------------------------------------------------|
b|------6-------------------------------8---------8------------------|
g|---5-------------5-----5-------------------------------------------|
D|8--------------8----7---------------10--------10-------------------|
A|--------------------------------8-10------8-10---------------------|
E|-------------------------------------------------------------------|

e|-------------------------------------------------------------------|
b|------6-------------------------------8---------8------------------|
g|---5-------------5-----5-------------------------------------------|
D|8--------------8----7---------------10--------10-------------------|
A|--------------------------------8-10------8-10---------------------|
E|-------------------------------------------------------------------|

e|-------------------------------------------------------------------|
b|------6-------------------------------8---------8---------8---6----|
g|---5-------------5-----5-------------------------------------------|
D|8--------------8----7---------------10--------10-------------------|
A|--------------------------------8-10------8-10---------------------|
E|-------------------------------------------------------------------|

e|--8----8----8---8----8---8---8---8---8---8---8---8-------|  
b|--X----X----X---X----X---X --X --X --X --X --X --X ------| 
g|--10---10---10--10---10--10--10--10--10--10--10--10------|  
D|---------------------------------------------------------| 
A|---------------------------------------------------------|  
E|---------------------------------------------------------|  

e|-----------------------------------------------|
b|13-11----------------------------13--11--------|
g|-------10---------------------------------10---|
D|------------19------17-----15------------------|
A|-------------------------------15--------------|
E|-----------------------------------------------|

e|--------------------------10-10-10-10------|
b|------------8------888-888-8-8--8--8-------|
g|---10-10-10--10-10--------10-10-10-10------|
D|-------------------------------------------|
A|-------------------------------------------|
E|-------------------------------------------|

 

Soyez le premier à commenter

Poster un Commentaire

Votre adresse de messagerie ne sera pas publiée.




Time limit is exhausted. Please reload CAPTCHA.