White Stripes Seven nation army

Share Button
Imprimer cette tablature Imprimer cette tablature

Toutes les tablatures sont ici  http://guitarepourdebutant.fr/tablatures-faciles/

Tablature guitare White Stripes : Seven nation army

---------------------------------------------
---------------------------------------------
---------------------------------------------
---------------------------------------------
--------------7-7---10---7-------------------
----------------------------10---8---7-------

INTRO x4

---------------------------------------------
---------------------------------------------
---------------------------------------------
---------------------------------------------
--------------7-7---10---7-------------------
----------------------------10---8---7-------

 x8

--------------------------------------------------------
--------------------------------------------------------
----9--9--12--9--7--5--4---9--9--12--9--7--5--7--5--4--2
----9--9--12--9--7--5--4---9--9--12--9--7--5--7--5--4--2
--------------------------------------------------------
--------------------------------------------------------

CHORUS x2

Intro:

---------------------------------------------
---------------------------------------------
---------------------------------------------
---------------------------------------------
--------------7-7---10---7-------------------
----------------------------10---8---7-------

INTRO x4

---------------------------------------------
---------------------------------------------
---------------------------------------------
---------------------------------------------
--------------7-7---10---7-------------------
----------------------------10---8---7-------

x8

Chorus
--------------------------------------------------------
--------------------------------------------------------
----9--9--12--9--7--5--4---9--9--12--9--7--5--7--5--4--2
----9--9--12--9--7--5--4---9--9--12--9--7--5--7--5--4--2
--------------------------------------------------------
--------------------------------------------------------

Chorus x2

Solo:

---------------------------------------------------------
---------------------------------------------------------
----------12-11---------12-14-12-12-14-12-11-------------
---14------------14-14-----------------------------------
---------------------------------------------------------
---------------------------------------------------------
x2

--12--12--15--12--12--12--15--14----12-12-15-17-15-15-17-15-14
--------------------------------------------------------------
--------------------------------------------------------------
--------------------------------------------------------------
--------------------------------------------------------------
--------------------------------------------------------------

---12--12--15--12--12--17--14---12--12--14--12-12-12-14--------
---------------------------------------------------------13--12
---------------------------------------------------------------
---------------------------------------------------------------
---------------------------------------------------------------
---------------------------------------------------------------

Soyez le premier à commenter

Poster un Commentaire

Votre adresse de messagerie ne sera pas publiée.




Time limit is exhausted. Please reload CAPTCHA.