Woodkid – Brooklyn

Share Button
Tablature Woodkid - Brooklyn

Toutes les tablatures sont ici  http://guitarepourdebutant.fr/tablatures-faciles/

 

Intro

E-----------------------------------------------|
B--7--------------7-------7-------------7-------|
G-----------8---------------------8-------------|
D--------8-----------8---------8-----------8----|
A-----------------------------------------------|
E--7-----------7----------7----------7----------|

E-----------------------------------------------|
B--9--------------9-------9-------------9-------|
G-----------8---------------------8-------------|
D--------9-----------9---------9-----------9----|
A--7-----------7----------7----------7----------|
E-----------------------------------------------|

E-----------------------------------------------|
B--7--------------7-------7-------------7-------|
G-----------8---------------------8-------------|
D--------8-----------8---------8-----------8----|
A-----------------------------------------------|
E--7-----------7----------7----------7----------|

E-----------------------------------------------|
B--9--------------9-------9-------------9-------|
G-----------8---------------------8-------------|
D--------9-----------9---------9-----------9----|
A--7-----------7----------7----------7----------|
E-----------------------------------------------|      x4

E-----------------------------------------------|
B--8--------------8-------8-------------8-------|
G-----------6---------------------6-------------|
D--------8-----------8---------8-----------8----|
A--6-----------6----------6----------6----------|
E-----------------------------------------------|

E-----------------------------------------------|
B--5--------------5-------5-------------5-------|
G-----------6---------------------6-------------|
D--------6-----------6---------6-----------6----|
A--4-----------4----------4----------4----------|
E-----------------------------------------------|      x2

E-----------------------------------------------|
B--10-------------10------10------------10------|
G-----------11--------------------11------------|
D--------11----------11--------11----------11---|
A--9-----------9----------9----------9----------|
E-----------------------------------------------|

E-----------------------------------------------|
B--5--------------5-------5-------------5-------|
G-----------6---------------------6-------------|
D--------6-----------6---------6-----------6----|
A--4-----------4----------4----------4----------|
E-----------------------------------------------|      x2

E-----------------------------------------------|
B--10-------------10------10------------10------|
G-----------11--------------------8-------------|
D--------11----------11--------7-----------7----|
A--9-----------9--------------------------------|
E-------------------------7----------7----------|

E-----------------------------------------------|
B--9--------------9-------9-------------9-------|
G-----------8---------------------8-------------|
D--------9-----------9---------9-----------9----|
A--7-----------7----------7----------7----------|
E-----------------------------------------------|

E-----------------------------------------------|
B--12-------------12------12------------12------|
G-----------11--------------------11------------|
D--------12----------12--------12----------12---|
A--11----------11---------11---------11---------|
E-----------------------------------------------|

E-----------------------------------------------|
B--12-------------12------12------------12------|
G-----------10--------------------10------------|
D--------9-----------9---------9-----------9----|
A-----------------------------------------------|
E--9-----------9----------9----------9----------|

E-----------------------------------------------|
B--10-------------10------10------------10------|
G-----------11--------------------11------------|
D--------11----------11--------11----------11---|
A--9-----------9----------9----------9----------|
E-----------------------------------------------|

E-----------------------------------------------|
B--10-------------10------10------------10------|
G-----------10--------------------10------------|
D--------10----------10--------10----------10---|
A--8-----------8----------8----------8----------|
E-----------------------------------------------|

E-----------------------------------------------|
B--8--------------8-------8-------------8-------|
G-----------9---------------------9-------------|
D--------9-----------9---------9-----------9----|
A-----------------------------------------------|
E--8-----------8----------8----------8----------|

E-----------------------------------------------|
B--8--------------8-------7-------------7-------|
G-----------9---------------------8-------------|
D--------9-----------9---------8-----------8----|
A--7-----------7----------9----------9----------|
E-----------------------------------------------|

E-------------------------9-----------------------|
B--12-------------12--------------------12--------|
G-----------10--------------------10--------------|
D--------9-----------9---------9-----------9------|
A-------------------------------------------------|
E--9-----------9----------9----------9------------|

E-----------------------------------------------|
B--10-------------10------10------------10------|
G-----------11--------------------11------------|
D--------11----------11--------11----------11---|
A--9-----------9----------9----------9----------|
E-----------------------------------------------|

E-----------------------------------------------|
B--10-------------10------10------------10------|
G-----------10--------------------10------------|
D--------10----------10--------10----------10---|
A--8-----------8----------8----------8----------|
E-----------------------------------------------|

E-----------------------------------------------|
B--8--------------8-------8-------------8-------|
G-----------9---------------------9-------------|
D--------9-----------9---------9-----------9----|
A-----------------------------------------------|
E--8-----------8----------8----------8----------|

E-----------------------------------------------|
B--8--------------8-------8-------------8-------|
G-----------9---------------------9-------------|
D--------9-----------9---------9-----------9----|
A--7-----------7----------7----------7----------|
E-----------------------------------------------|      x2

E-----------------------------------------------|
B--12-------------12------12------------12------|
G-----------10--------------------10------------|
D--------9-----------9---------9-----------9----|
A-----------------------------------------------|
E--9-----------9----------9----------9----------|

E-----------------------------------------------|
B--12-------------------------------------------|
G-----------------------------------------------|
D-----------------------------------------------|
A-----------------------------------------------|
E--9--------------------------------------------|

 

Soyez le premier à commenter

Poster un Commentaire

Votre adresse de messagerie ne sera pas publiée.




Time limit is exhausted. Please reload CAPTCHA.