Yodelice – Talk to me

Share Button

Tablature Yodelice – Talk to me

Toutes les tablatures sont ici  http://guitarepourdebutant.fr/tablatures-faciles/

 

|------------------|-0-----0--0-------|-3-----3--0-----0-|-3-----3--0-----0-|
|-1-----1--3-----3-|-----1----1-----0-|-----0--------1---|-----0--------1---|
|-----0--------0---|---2------2-------|---0--------2-----|---0--------2-----|
|---2--------0-----|----------2-------|------------------|------------------|
|-3--------2-------|-0--------0-------|----------0-------|----------0-------|
|------------------|------------------|-2----------------|-2----------------|

|-1----1--0-----0--|-0-----0--0-----0-|
|-----1--------1---|-----1--------1---|
|---2--------2-----|---0--------0-----|
|-3-------3--------|-3--------3-------|
|------------------|------------------|
|-----------------_|------------------|

|-0-----0--0-----0-|------------------|-0-----0--0-----0-|-1-------1---1----1--|
|-----0--------0---|-1-----1--1------1|-----0--------0---|-------1--------1----|
|---0--------0-----|-----2---------2--|---0--------0-----|-----2---------2-----|
|------------------|---2--------2-----|------------------|-3-----------2-------|
|-2--------2-------|-0--------0-------|------------------|---------------------|
|------------------|------------------|-2--------2-------|---------------------|

|-1-----1--1------1-|-0-----0--0-------------|
|-----3---------3---|-----1----------0-------|
|---2---------2-----|---2----------0----X2--_|
|-0--------0--------|-2----------0-----------|
|-------------------|----------2-------------|
|-------------------|------------------------|

|------------------|-0----0-0---------|-3-----3--0-----0-|-3-----3--0-----0-|
|-1-----1--3-----3-|-----1--1-0------0|-----0--------1---|-----0--------1---|
|-----0--------0---|---2----2--2----2-|---0--------2-----|---0--------2-----|
|---2--------0-----|--------2---2--2--|------------------|------------------|
|-3--------2-------|-0------0----0----|----------0-------|----------0-------|
|------------------|------------------|-2----------------|-2----------------|

|-1-----1--0-----0-|-0-----0--0-----0-|
|-----1--------1---|-----1--------1---|
|---2--------2-----|---0--------0-----|
|------------------|------------------|
|------------------|------------------|
|-3----------------|------------------|