Guitare pour Débutant

Vous débutez la guitare ou vous souhaitez progresser ?

Santana europa

Share Button
Imprimer cette tablature Imprimer cette tablature

Toutes les tablatures sont ici  http://guitarepourdebutant.fr/tablatures-faciles/

Tablature Santana Europa

 
H = Hammer 
P = Pull off
~ = vibrato
/\ = slide 

|----------8--10--10^11---8---||-------------------------|
|--------8------------------11||-8^9---------------------|
|-----------------------------||-------------------------|
|-----------------------------||-------------------------|
|-----------------------------||-------------------------|
|-----------------------------||-------------------------|

|---------8-8^10-8------------|--------------------------|
|----9-11-----------11--------|--------------------------|
|--------------------------10 / 12-----------------------|
|-----------------------------|--------------------------|
|-----------------------------|--------------------------|
|-----------------------------|--------------------------|
|-----------------------------|--------------------------|
|--8--9---11-11/13--11--9-8---|-------8------------------|
|---------------------------8 / 10-------8-10------------|
|-----------------------------|--------------------------|
|-----------------------------|--------------------------|
|-----------------------------|--------------------------|
|-----------------------------|--------------------------|
|---------8--9-9^11--9-8------|--------------------------|
|(10)-10-----------------10-8-|-(8)-----10^8-------------|
|-----------------------------|--------------10-8--------|
|-----------------------------|-------------------10 \ 3-|
|-----------------------------|--------------------------|
|-8-----8--10-10^11--10---8---|--------------------------|
|-8---8---------------------11|-8^9----------------------|
|-8---------------------------|--------------------------|
|-----------------------------|--------------------------|
|-----------------------------|--------------------------|
|-----------------------------|--------------------------|
|-------8-8^10--8-------------|--------------------------|
|--9-11-------------11--------|--------------------------|
|--------------------------10 / 12-----------------------|
|-----------------------------|--------------------------|
|-----------------------------|--------------------------|
|-----------------------------|--------------------------|
|-----------------------------|--------------------------|
|--8--9--11-11/13-11--9-8-----|--------------------------|
|-------------------------8/10|-(10)-------8^10----------|
|-----------------------------|--------------------------|
|-----------------------------|--------------------------|
|-----------------------------|--------------------------|
|-----------------------------|--------------------------|
|-------8-9-9^11--9-9^8^9-----|--------------------------|
|(10)10--------------------10 / 12-----------------------|
|-----------------------------|--------------------------|
|-----------------------------|--------------------------|
|-----------------------------|--------------------------|
|------------------------13b--||--13b--------------------|
|------------------13---------||-------------------------|
|------------12---------------||-------------------------|
|-----------------------------||-------------------------|
|-----------------------------||-------------------------|
|-----------------------------||-------------------------|
                         
|(13)--10--11-13-(13)/16------|
|---------------------------11|
|------------------------12---|
|-----------------------------|
|-----------------------------|
|-----------------------------|
|-10-13-13^11-13b---13-11-13^11-|
|-------------------------------|
|-------------------------------|
|-------------------------------|
|-------------------------------|
|-------------------------------|
    
|(11)^13--13b---13b--13b---11---|
|-----------------------------13|
|-------------------------------|
|-------------------------------|
|-------------------------------|
|-------------------------------|
|-13^11^10-(10)^11^10------------|
|--------------------------------|
|----------------------12^10^8\7-|
|--------------------------------|
|--------------------------------|
|--------------------------------|
|----11b----11^8---------------|
|----------------11-8----------|
|---------------------10b--8---|
|----------------------------10|
|------------------------------|
|------------------------------|
|------------------------------|
|8-----------------------------|
|--8---------------------------|
|----10--------8---------------|
|----------------10\8-6--------|
|------------------------8--8--|
|8------------------------|----------------------------|
|8------------------------|-----8------------8---------|
|8----------7--------8----|8^10---------8^10-----------|
|-----10------------------|-----------8-------------8--|
|-------------------------|----------------------------|
|-------------------------|----------------------------|
|-------------------------|----------------------------|
|------8------------------|--7/8-11------7/8-11--------|
|8^10---------10----8-10-8|----------------------------|
|----------8--------------|------------8------------8--|
|-------------------------|----------------------------|
|-------------------------|----------------------------|
 
|--------------8----------8---------|
|8-11-11^8^11----11-(11)b--11-------|
|----------------------------10b-8--|
|---------------------------------10|
|-----------------------------------|
|-----------------------------------|
|--------------------------|
|-----8-----------8--------|
|8^10--------8^10----------|
|----------8-------------8-|
|--------------------------|
|--------------------------|
|-------8------------------------|-----------------------|
|----8-----11-(8)-------------8--|-----------------------|
|10b-------------10b----8--10---8|-(8)---10^8------------|
|------------------------10------|-----------10/8-6-10-6-|
|--------------------------------|-----------------------|
|--------------------------------|-----------------------|
|--------------------------|---------------------------|
|--------------------------|------8------------8-------|
|--------------7----8------|8^10----------8^10---------|
|--------/10-----------10--|------------8-----------8--|
|--------------------------|---------------------------|
|-8------------------------|---------------------------|
|--------------------------|-----------------------------|
|-----8--------------------|-7/8---11--------7/8---11----|
|8^10-----------10---8-10-8|-----------------------------|
|------------8-------------|--------------8-------------8|
|--------------------------|-----------------------------|
|--------------------------|-----------------------------|
|-------------8----------8-------|
|8-11-11^8^11---11-(11)b--11-8---|
|-----------------------------10b|
|--------------------------------|
|--------------------------------|
|--------------------------------|
|------8------------------------|
|----8---11-8--------8----8-----|
|(10)--------10b-8----8^10--10--|
|-----------------10------------|
|-------------------------------|
|-------------------------------|
        
|---------8---------------------|
|--------8---11-8---------------|
|(10)-10b--------10b--8---8--10 /
|-----------------------10------|
|-------------------------------|
|-------------------------------| 

|----------------------------------|
|----------------------------------|
12--------------12-12^14-12-12^14--|
|---------10-12/14-----------------|
|----10/12-------------------------|
|----------------------------------| 

|----------------------13b-||--13b-----------------------|
|----------------13--------||----------------------------|
|-12-----12----------------||----------------------------|
|--------------------------||----------------------------|
|--------------------------||----------------------------|
|--------------------------||----------------------------|
|(13)----13b---11-13---11-13b-|-13b-(13)^11-13-11^13-----|
|-----------------------------|--------------------------|
|-----------------------------|--------------------------|
|-----------------------------|--------------------------|
|-----------------------------|--------------------------|
|-----------------------------|--------------------------|
       
|---13b----13b----(13)^11-----|
|-----------------------------|
|-----------------------------|
|-----------------------------|
|-----------------------------|
|-----------------------------|
|-13-13b(13)^11-13^11\10---11^10--|
|---------------------------------|
|---------------------------------|
|---------------------------------|
|---------------------------------|
|---------------------------------|
|--11b----11---8--------------|----------------------|
|----------------11-8---------|-8--------------------|
|---------------------10b--8--|---8------------------|
|---------------------------10|-----10------------8--|
|-----------------------------|----------------------|
|-----------------------------|----------------------|
|---------------------------|-------------------------|
|---------------------------|----8-8-----------8-11-9-|
|----8-8--------------------|-------------------------|
|-10---------------------8--|-10----------------------|
|---------------------------|-------------------------|
|---------------------------|-------------------------|
   
|-----------------------------------|
|(9)--8-11-9--8---------------------|
|---------------10/12\10-8--10^8----|
|-------------------------10----10-8|
|-----------------------------------|
|-----------------------------------|
|----------------------------|
|----8-8-----------8^11/13-13|
|----------------------------|
|10--------------------------|
|----------------------------|
|----------------------------|
|----11------------------8-11-10^11^10^8|
|(13)------------------8----------------|
|---------------------------------------|
|---------------------------------------|
|---------------------------------------|
|---------------------------------------|
 
|11-10^11^10^8-11-10b(10)^8-11-10^8-11-10^11^10^8-
|-------------------------------------------------
|-------------------------------------------------
|-------------------------------------------------
|-------------------------------------------------
|------------------------------------------------- 

-11^10^8-11b-|
-------------|
-------------|
-------------|
-------------|
-------------|
|(11)------(11)^10^8-11^10^8-----------------11-13b|
|----------------------------9^8-----------13------|
|--------------------------------10^8--------------|
|-------------------------------------10-----------|
|--------------------------------------------------|
|--------------------------------------------------|
|(13)-----13b--13b|13b-(13)b-(13)b--13b--------|
|-----------------|----------------------------|
|-----------------|----------------------------|
|-----------------|----------------------------|
|-----------------|----------------------------|
|-----------------|----------------------------|
|(13)------------------------|
|----------------------------|
|----------------------------|
|----------------------------|
|----------------------------|
|----------------------------|
|(13)---------------------13-|
|----------------------------|
|----------------------------|
|----------------------------|
|----------------------------|
|----------------------------|
|(13)-11--11--11--11--11--11--11--11-|
|------------------------------------|
|------------------------------------|
|------------------------------------|
|------------------------------------|
|------------------------------------| 

|(11)-8-8-----8--------------|
|---------11b--11-8----------|
|------------------10b10-8--8|
|-------------------------10-|
|----------------------------|
|----------------------------|
|--------------------------------------|
|------8-------------------------------|
|(8)10--8------------------------7-8-10|
|---------10-8-----------8-10--10------|
|-------------10\8-6-8/10--------------|
|--------------------------------------|
|----------------------|--------------------------|
|8--8----11--9--8--9-8-|(8)-9-8-------8-----------|
|-10--10---------------|-------10-8-10------7-8-10|
|----------------------|-----------------10-------|
|----------------------|--------------------------|
|----------------------|--------------------------|
|---------------------------------|
|8------8---------11--9--8--9-6/8-|
|---10-------10-------------------|
|---------------------------------|
|---------------------------------|
|---------------------------------| 

|---------------------------------|
|(8)--9^8-------8-----------------|
|--------10-8-10------------7/8-10|
|------------------------10-------|
|---------------------10----------|
|---------------------------------|
|-------------------------------------|
|8-------8-------11---9---8---9-6/8---|
|-----10----10------------------------|
|-------------------------------------|
|-------------------------------------|
|-------------------------------------|
|-------------------------------------|
|(8)--8---------8---------------------|
|-------10-8-10---------------7-8-10--|
|-------------------------10----------|
|-------------------------------------|
|-------------------------------------|
|-------------------------------------|
|8----8--------11--9--8-(8)^9---------|
|--10----10--------------------10/12--|
|-------------------------------------|
|-------------------------------------|
|-------------------------------------|
|---------------------------|---11(11)-------11---11-13b|
|-----------------8-11/13-13|(13)---------------13------|
|(12)-----------------------|---------------------------|
|---------------------------|---------------------------|
|---------------------------|---------------------------|
|---------------------------|---------------------------|
|(13)-----13b---13b--13b--13b|(13)---------------------|
|----------------------------|-------------------------|
|----------------------------|-------------------------|
|----------------------------|-------------------------|
|----------------------------|-------------------------|
|----------------------------|-------------------------|
|13---11--11---11--11---13b--(13)^11-13-11\-|
|-------------------------------------------|
|-------------------------------------------|
|-------------------------------------------|
|-------------------------------------------|
|-------------------------------------------|
|15-18-18-15-18b-18b--18b---18b-----15|
|-------------------------------------|
|-------------------------------------|
|-------------------------------------|
|-------------------------------------|
|-------------------------------------|
|---15-15-18^15---15-15-18^15---15-15-18^15---15-15-18^15-
|18b-----------18b-----------18b-----------18b------------
|---------------------------------------------------------
|---------------------------------------------------------
|---------------------------------------------------------
|---------------------------------------------------------
----15-18^15---15-18b--|
-18b--------18b--------|
-----------------------|
-----------------------|
-----------------------|
-----------------------|
|(18)----18b-----18b----18b---15--------18--18--18-|
|----------------------------------18b-------------|
|--------------------------------------------------|
|--------------------------------------------------|
|--------------------------------------------------|
|--------------------------------------------------|
|---18-18---18-18---18-18---18-18-18-18--18-|
|18b-----18b-----18b-----18b----------------|
|-------------------------------------------|
|-------------------------------------------|
|-------------------------------------------|
|-------------------------------------------|
|------18------18------18---------------------------|
|18b-----18b-----18b--------------------------------|
|---------------------------//------//-------//-----|
|---------------------------------------------------|
|---------------------------------------------------|
|---------------------------------------------------|
|----18-----------------11b-----11b--|
|18b-------18\-----------------------|
|------------------------------------|
|------------------------------------|
|------------------------------------|
|------------------------------------|
|11b--11-8----------------------------------------8-----|
|---------11-8------------------------------------------|
|-------------10b--8--10-8---------------------10b--10^8|
|-------------------10----10-8--------------------------|
|-----------------------------10\8-6--------------------|
|------------------------------------8------------------|
|----------------------------------------------------11b|
|-----8--11^8---8--11^8---8^11------11-8----------------|
|10b---------10b-------10b--------------10-8------------|
|---------------------------------------------(9)-------|
|-------------------------------------------------------|
|-------------------------------------------------------|

Laisser un commentaire

Votre adresse de messagerie ne sera pas publiée.

Time limit is exhausted. Please reload CAPTCHA.

Liens commerciaux

Archives

Lien commerciaux

Copyright © 2017 Guitare pour Débutant

En poursuivant votre navigation sur ce site, vous acceptez l'utilisation de cookies ou autres traceurs pour vous proposer des publicités ciblées, adaptées à vos centres d'intérêts, améliorer le fonctionnement du site et réaliser des statistiques de visites. Pour en savoir plus et paramétrer les cookies, cliquez ici. Plus d'info

Les paramètres des cookies sur ce site sont définis sur « accepter les cookies » pour vous offrir la meilleure expérience de navigation possible. Si vous continuez à utiliser ce site sans changer vos paramètres de cookies ou si vous cliquez sur "Accepter" ci-dessous, vous consentez à cela.

Fermer