30 Seconds To Mars Was it a dream ?

Share Button
Imprimer cette tablature Imprimer cette tablature

Toutes les tablatures sont ici  http://guitarepourdebutant.fr/tablatures-faciles/

 

e|-----------------|-----------------|-----------------|-----------------|
B|-----------------|-----------------|-----------------|-----------------|
G|-----------------|-----------------|-----------------|-----------------|
D|-----2---3---2---|-----5------5----|-----2---3---2---|-----5------7----|
A|-0-0---0---0---0-|-3-3----3-3------|-0-0---0---0---0-|-3-3----5-5------|
E|-----------------|-----------------|-----------------|-----------------|

e|-----------------|-----------------|-----------------|-----------------|
B|-----------------|-----------------|-----------------|-----------------|
G|-----------------|-----------------|-----------------|-----------------|
D|-----2---3---2---|-----5------5----|-----5------5----|-----9------9/10-|
A|-0-0---0---0---0-|-3-3----3-3------|-----------------|/7-7----7-7------|
E|-----------------|-----------------|-3-3----3-3------|-----------------|


e|-----------------|-----------------|-----------------|-----------------|
B|-----------------|-----------------|-----------------|-----------------|
G|-5---------------|-7---------------|-----------------|-9---------------|
D|-5---------------|-7---------------|-7---------------|-9---------------|
A|-3---------------|-5---------------|-7---------------|-7---------------|
E|-----------------|-----------------|-5---------------|-----------------|

e|-----------------|-----------------|-----------------|-----------------|
B|-----------------|-----------------|-----------------|-----------------|
G|-5---------------|-7---------------|-----------------|-----------------|
D|-5---------------|-7---------------|-----------------|-----------------|
A|-3---------------|-5---------------|-----------------|-----------------|
E|-----------------|-----------------|-----------------|-----------------|
e|-----------------|-----------------|-----------------|-----------------|
B|-----------------|-----------------|-----------------|-----------------|
G|-----------------|-----------------|-----------------|-----------------|
D|-----2---3---2---|-----5------5----|-----2---3---2---|-----5------7----|
A|-0-0---0---0---0-|-3-3----3-3------|-0-0---0---0---0-|-3-3----5-5------|
E|-----------------|-----------------|-----------------|-----------------|

e|-----------------|-----------------|-----------------|-----------------|
B|-----------------|-----------------|-----------------|-----------------|
G|-----------------|-----------------|-----------------|-----------------|
D|-----2---3---2---|-----5------5----|-----5------5----|-----9------9/10-|
A|-0-0---0---0---0-|-3-3----3-3------|-----------------|/7-7----7-7------|
E|-----------------|-----------------|-3-3----3-3------|-----------------|
e|-----------------|-----------------|-----------------|-----------------|
B|-----------------|-----------------|-----------------|-----------------|
G|-5---------------|-7---------------|-----------------|-9---------------|
D|-5---------------|-7---------------|-7---------------|-9---------------|
A|-3---------------|-5---------------|-7---------------|-7---------------|
E|-----------------|-----------------|-5---------------|-----------------|

e|-----------------|-----------------|-----------------|-----------------|
B|-----------------|-----------------|-----------------|-----------------|
G|-5---------------|-7---------------|-----------------|-----------------|
D|-5---------------|-7---------------|-----------------|-----------------|
A|-3---------------|-5---------------|-----------------|-----------------|
E|-----------------|-----------------|-----------------|-----------------|
e|-----------------|-----------------|-----------------|-----------------|
B|-----------------|-----------------|-----------------|-----------------|
G|-----------------|-----------------|-7-7-7-7-7-7-7-7-|-7-7-7-7-7-7-7-7-|
D|-----2---2---2---|---2---2---2---2-|-5-5-5-5-5-5-5-5-|-5-5-5-5-5-5-5-5-|
A|-0-0-0-0-0-0-0-0-|-0-0-0-0-0-0-0-0-|-5-5-5-5-5-5-5-5-|-5-5-5-5-5-5-5-5-|
E|-----------------|-----------------|-----------------|-----------------|
e|-----------------|-----------------|-----------------|-----------------|
B|-----------------|-----------------|-----------------|-----------------|
G|-5---------------|-7---------------|-----------------|-9---------------|
D|-5---------------|-7---------------|-7---------------|-9---------------|
A|-3---------------|-5---------------|-7---------------|-7---------------|
E|-----------------|-----------------|-5---------------|-----------------|
e|-----------------|-----------------|-----------------|-----------------|
B|-----------------|-----------------|-----------------|-----------------|
G|-5---------------|-7---------------|-2---------------|-2---------------|
D|-5---------------|-7---------------|-2---------------|-2---------------|
A|-3---------------|-5---------------|-0---------------|-0---------------|
E|-----------------|-----------------|-----------------|-----------------|
e|-----------------|-----------------|-----------------|-----------------|
B|-----------------|-----------------|-----------------|-----------------|
G|-5---------------|-7---------------|-----------------|-9---------------|
D|-5---------------|-7---------------|-7---------------|-9---------------|
A|-3---------------|-5---------------|-7---------------|-7---------------|
E|-----------------|-----------------|-5---------------|-----------------|
e|-----------------|-----------------|-----------------|-----------------|
B|-----------------|-----------------|-----------------|-----------------|
G|-5---------------|-7---------------|-5---------------|-7---------------|
D|-5---------------|-7---------------|-5---------------|-7---------------|
A|-3---------------|-5---------------|-3---------------|-5---------------|
E|-----------------|-----------------|-----------------|-----------------|
e|-----------------|-----------------|-----------------|
B|-----------------|-----------------|-----------------|
G|-5---------------|-7---------------|-2---------------|
D|-5---------------|-7---------------|-2---------------|
A|-3---------------|-5---------------|-0---------------|
E|-----------------|-----------------|-----------------|