Acdc Highway to Hell

Share Button

Tablature : Acdc / Highway to Hell

Imprimer cette tablature Imprimer cette tablature

Toutes les tablatures sont ici  http://guitarepourdebutant.fr/tablatures-faciles/

|----------------------------------------------------------------------------|
|---2--2--2----------3--3--3--------3--3--3--------3--3--3-------3-----2---2-|
|---2--2--2----------2--2--0--------2--2--0--------2--2--0-------2-----2---2-|
|---2--2--2----------0--0--0--------0--0--0--------0--0--0-------0-----2---2-|
|---0--0--0----------x--x--x--------x--x--x--------x--x--x-------x-----0---0-|
|--------------------2--2--3--------2--2--3--------2--2--3-------2-----------|X5

|--------------------------------------------------------------------------
|---2--2--2----------3--3--3--------3--3--3--------3--3--3-------3-----2---
|---2--2--2----------2--2--0--------2--2--0--------2--2--0-------2-----2---
|---2--2--2----------0--0--0--------0--0--0--------0--0--0-------0-----2---
|---0--0--0----------x--x--x--------x--x--x--------x--x--x-------x-----0---
|--------------------2--2--3--------2--2--3--------2--2--3-------2---------

|--------------------------------------------------------------------------------
|--------------------------------------------------2--------3----3--3--0--3---3--
|--------------------------------------------------2--------2----2--2--0--0---2--
|--2----------------------2--2--2--2--2--2--2--2---2----2---0----0--0--0--0---0--
|--2----2--2--2--2--2--2--2--2--2--2--2--2--2--2---0----0------------------------
|--0--0-0--0--0--0--0--0--0--0--0--0--0--0--0--0---------------------------------

|---------------------------------------------------------------------------
|---------3----3--3--0--3---3----2-------3-----3--3--0--3---3----2--------3--
|---------2----2--2--0--0---2----2-------2-----2--2--0--0---2----2--------2--
|--2---2--0----0--0--0--0---0----2----2--0-----0--0--0--0---0----2-----2--0--
|--0---0----------------x--------0----0-----------------x--------0-----0-----
|-----------------------3-------------------------------3--------------------

|--------------------------------------------------------------
|--2--2--2------3--3--3------3--3--3----3--3--3----3----2---2--
|--2--2--2------2--2--2------2--2--2----2--2--2----2----2---2--
|--2--2--2------0--0--0------0--0--0----0--0--0----0----2---2--
|--0--0--0------x--x--x------x--x--x----x--x--x----x----0---0--
|---------------2--2--3------2--2--3----2--2--3----2-----------X3

|-----------------------------------------------------------
|--2--2--2------3--3--3------3--3--3----3--3--3----3----2---
|--2--2--2------2--2--2------2--2--2----2--2--2----2----2---
|--2--2--2------0--0--0------0--0--0----0--0--0----0----2---
|--0--0--0------x--x--x------x--x--x----x--x--x----x----0---
|---------------2--2--3------2--2--3----2--2--3----2--------

|--------------------------------------------------------------------------------
|--------------------------------------------------2--------3----3--3--0--3---3--
|--------------------------------------------------2--------2----2--2--0--0---2--
|--2----------------------2--2--2--2--2--2--2--2---2----2---0----0--0--0--0---0--
|--2----2--2--2--2--2--2--2--2--2--2--2--2--2--2---0----0------------------------
|--0--0-0--0--0--0--0--0--0--0--0--0--0--0--0--0---------------------------------

|----------------------------------------------------------------------------------
|-----3----3--3--0--3---3----2-------3-----3--3--0--3---3----2--------3--3-------3-
|-----2----2--2--0--0---2----2-------2-----2--2--0--0---2----2--------2--2-------2-
|--2--0----0--0--0--0---0----2----2--0-----0--0--0--0---0----2-----2--0--0-------0-
|--0----------------x--------0----0-----------------x--------0-----0---------------
|-------------------3-------------------------------3------------------------------

|--2--2--2--3--3--3--2-------2--2--2--3--3--3--2------3--3--3--2---2-----
|--3--3--3--3--3--3--3-------3--3--3--3--3--3--3------0--0--0--3---3---3-
|--2--2--2--0--0--0--2-------2--2--2--0--0--0--2---2--0--0--0--2---2-----
|--0--0--0--0--------0-------0--0--0--0--------0---0--0--0--0--0---0-----
|------------------------------------------------------------------------
|------------------------------------------------------------------------

SOLO: 

|-------5------------------------------------------------------------------------
|-----5-------5--5------5--5-----5--5-----5--5--7/---5---------------------------
|--7/------7/-------7-/-------7/-------7/-------7/---5-----7--5/--------------2~-
|--------------------------------------------------------7---------4/--2---------
|----------------------------------------------------------------0-------3--0----
|--------------------------------------------------------------------------------

|-----5----------------5---5--------5--------------15/---15--12---------------
|------5---------------5---5/--------5-----7>10-----------------14------------
|--4/-----4-2~-----------0------------5----------------------------14-14~~----
|----------------4/------------7/---------------------------------------------
|-------------------0-------------0-------------------------------------------
|-----------------------------------------------------------------------------

Soyez le premier à commenter

Poster un Commentaire

Votre adresse de messagerie ne sera pas publiée.




Time limit is exhausted. Please reload CAPTCHA.