Adele : SOMEONE LIKE YOU

Share Button
Imprimer cette tablature Imprimer cette tablature


Adele : SOMEONE LIKE YOU

 capo 2 ème case 
Toutes les tablatures sont ici  http://guitarepourdebutant.fr/tablatures-faciles/

Intro

e|----------------|----------------|----------------|----------------|
B|----3-------3---|----3-------3---|----3-------3---|----3-------3---|
G|--4---4---4---4-|--4---4---4---4-|--4---4---4---4-|--4---4---4---4-|
D|--------5-------|5-------5-------|--------4-------|4-------4-------|
A|----------------|----------------|----------------|----------------|
E|3---------------|----------------|2---------------|----------------|
e|----0-------0---|----0-------0---|----0-------0---|----0-------0---|
B|--0---0---0---0-|--0---0---0---0-|--1---1---1---1-|--1---1---1---1-|
G|----------------|----------------|--------0-------|0-------0-------|
D|--------2-------|2-------2-------|----------------|----------------|
A|----------------|----------------|3---------------|----------------|
E|0---------------|----------------|----------------|----------------|

1er Couplet

e|----------------|----------------|----------------|----------------|
B|----3-------3---|----3-------3---|----3-------3---|----3-------3---|
G|--4---4---4---4-|--4---4---4---4-|--4---4---4---4-|--4---4---4---4-|
D|--------5-------|5-------5-------|--------4-------|4-------4-------|
A|----------------|----------------|----------------|----------------|
E|3---------------|----------------|2---------------|----------------|

e|----0-------0---|----0-------0---|----0-------0---|----0-------0---|
B|--0---0---0---0-|--0---0---0---0-|--1---1---1---1-|--1---1---1---1-|
G|----------------|----------------|--------0-------|0-------0-------|
D|--------2-------|2-------2-------|----------------|----------------|
A|----------------|----------------|3---------------|----------------|
E|0---------------|----------------|----------------|----------------|

e|----------------|----------------|----------------|----------------|
B|----3-------3---|----3-------3---|----3-------3---|----3-------3---|
G|--4---4---4---4-|--4---4---4---4-|--4---4---4---4-|--4---4---4---4-|
D|--------5-------|5-------5-------|--------4-------|4-------4-------|
A|----------------|----------------|----------------|----------------|
E|3---------------|----------------|2---------------|----------------|

e|----0-------0---|----0-------0---|----0-------0---|----0-------0---|
B|--0---0---0---0-|--0---0---0---0-|--1---1---1---1-|--1---1---1---1-|
G|----------------|----------------|--------0-------|0-------0-------|
D|--------2-------|2-------2-------|----------------|----------------|
A|----------------|----------------|3---------------|----------------|
E|0---------------|----------------|----------------|----------------|

e|----------------|----------------|----------------|----------------|
B|----3-------3---|----3-------3---|----3-------3---|----3-------3---|
G|--4---4---4---4-|--4---4---4---4-|--4---4---4---4-|--4---4---4---4-|
D|--------5-------|5-------5-------|--------4-------|4-------4-------|
A|----------------|----------------|----------------|----------------|
E|3---------------|----------------|2---------------|----------------|

e|----0-------0---|----0-------0---|----0-------0---|----0-------0---|
B|--0---0---0---0-|--0---0---0---0-|--1---1---1---1-|--1---1---1---1-|
G|----------------|----------------|--------0-------|0-------0-------|
D|--------2-------|2-------2-------|----------------|----------------|
A|----------------|----------------|3---------------|----------------|
E|0---------------|----------------|----------------|----------------|

Pré-refrain

e|----------------|----------------|----------------|----------------|
B|----3-------3---|----3-------3---|----1-------1---|----1-------1---|
G|--2---2---2---2-|--0---0---0---0-|--0---0---0---0-|--0---0---0---0-|
D|2-------2-------|2-------2-------|--------2-------|2-------2-------|
A|----------------|----------------|3---------------|----------------|
E|----------------|----------------|----------------|----------------|

e|----------------|----------------|----------------|----------------|
B|----3-------3---|----3-------3---|----1-------1---|----3-------3---|
G|--2---2---2---2-|--0---0---0---0-|--0---0---0---0-|--2---2---2---2-|
D|--------2-------|2-------2-------|--------2-------|2-------2-------|
A|----------------|----------------|3---------------|----------------|
E|0---------------|----------------|----------------|----------------|

  C
e|----------------|
B|----1-------1---|
G|--0---0---0-----|
D|2-------2-------|
A|----------------|
E|----------------|                

1er Refrain

e|----3-------3---|----2-------2---|----3-------3---|----3-------3---|
B|--0---0---0---0-|--3---3---3---3-|--0---0---0---0-|--1---1---1---1-|
G|--------0-------|--------2-------|--------0-------|--------0-------|
D|----------------|0---------------|----------------|----------------|
A|----------------|----------------|----------------|3---------------|
E|3---------------|----------------|0---------------|----------------|

e|----3-------3---|----2-------2---|----3-------3---|----3-------3---|
B|--0---0---0---0-|--3---3---3---3-|--0---0---0---0-|--1---1---1---1-|
G|--------0-------|--------2-------|--------0-------|--------0-------|
D|----------------|0---------------|----------------|----------------|
A|----------------|----------------|----------------|3---------------|
E|3---------------|----------------|0---------------|----------------|

e|----3-------3---|----2-------2---|----3-------3---|----3-------3---|
B|--0---0---0---0-|--3---3---3---3-|--0---0---0---0-|--1---1---1---1-|
G|--------0-------|--------2-------|--------0-------|--------0-------|
D|----------------|0---------------|----------------|----------------|
A|----------------|----------------|----------------|3---------------|
E|3---------------|----------------|0---------------|----------------|

e|----3-------3---|----2-------2---|----0-------0---|----0-------0---|
B|--0---0---0---0-|--3---3---3---3-|--0---0---0---0-|--1---1---1---1-|
G|--------0-------|--------2-------|--------0-------|--------0-------|
D|----------------|0---------------|----------------|----------------|
A|----------------|----------------|----------------|3---------------|
E|3---------------|----------------|0---------------|----------------|

  G                D                Em              C
e|----------------|----------------|----0-------0---|----0-------0---|
B|----3-------3---|----3-------3---|--0---0---0---0-|--1---1---1---1-|
G|--4---4---4---4-|--2---2---2---2-|--------0-------|--------0-------|
D|--------5-------|0-------0-------|----------------|----------------|
A|----------------|----------------|----------------|3---------------|
E|3---------------|----------------|0---------------|----------------|

  C
e|----0-------0---|
B|--1---1---1---1-|
G|--------0-------|
D|----------------|
A|3---------------|
E|----------------|

2ème Couplet

e|----------------|----------------|----------------|----------------|
B|----3-------3---|----3-------3---|----3-------3---|----3-------3---|
G|--4---4---4---4-|--4---4---4---4-|--4---4---4---4-|--4---4---4---4-|
D|--------5-------|5-------5-------|--------4-------|4-------4-------|
A|----------------|----------------|----------------|----------------|
E|3---------------|----------------|2---------------|----------------|

e|----0-------0---|----0-------0---|----0-------0---|----0-------0---|
B|--0---0---0---0-|--0---0---0---0-|--1---1---1---1-|--1---1---1---1-|
G|----------------|----------------|--------0-------|0-------0-------|
D|--------2-------|2-------2-------|----------------|----------------|
A|----------------|----------------|3---------------|----------------|
E|0---------------|----------------|----------------|----------------|

e|----------------|----------------|----------------|----------------|
B|----3-------3---|----3-------3---|----3-------3---|----3-------3---|
G|--4---4---4---4-|--4---4---4---4-|--4---4---4---4-|--4---4---4---4-|
D|--------5-------|5-------5-------|--------4-------|4-------4-------|
A|----------------|----------------|----------------|----------------|
E|3---------------|----------------|2---------------|----------------|

e|----0-------0---|----0-------0---|----0-------0---|----0-------0---|
B|--0---0---0---0-|--0---0---0---0-|--1---1---1---1-|--1---1---1---1-|
G|----------------|----------------|--------0-------|0-------0-------|
D|--------2-------|2-------2-------|----------------|----------------|
A|----------------|----------------|3---------------|----------------|
E|0---------------|----------------|----------------|----------------|

e|----------------|----------------|----------------|----------------|
B|----3-------3---|----3-------3---|----1-------1---|----1-------1---|
G|--2---2---2---2-|--0---0---0---0-|--0---0---0---0-|--0---0---0---0-|
D|--------2-------|2-------2-------|--------2-------|2-------2-------|
A|----------------|----------------|3---------------|----------------|
E|0---------------|----------------|----------------|----------------|

  Dadd9            Em7              C                Dadd9
e|----------------|----------------|----------------|----------------|
B|----3-------3---|----3-------3---|----1-------1---|----3-------3---|
G|--2---2---2---2-|--0---0---0---0-|--0---0---0---0-|--2---2---2---2-|
D|--------2-------|2-------2-------|--------2-------|2-------2-------|
A|----------------|----------------|3---------------|----------------|
E|0---------------|----------------|----------------|----------------|

  Em               Dadd9
e|----0-------0---|----2-------2---|
B|----------------|----------------|
G|--0---0---0---0-|--2---2---2-----|
D|2-------2-------|2-------2-------|
A|----------------|----------------|
E|----------------|----------------|

2ème Refrain

  G                D                Em               C
e|----3-------3---|----2-------2---|----3-------3---|----3-------3---|
B|--0---0---0---0-|--3---3---3---3-|--0---0---0---0-|--1---1---1---1-|
G|--------0-------|--------2-------|--------0-------|--------0-------|
D|----------------|0---------------|----------------|----------------|
A|----------------|----------------|----------------|3---------------|
E|3---------------|----------------|0---------------|----------------|

  G                D                Em               C
e|----3-------3---|----2-------2---|----0-------0---|----0-------0---|
B|--0---0---0---0-|--3---3---3---3-|--0---0---0---0-|--1---1---1---1-|
G|--------0-------|--------2-------|--------0-------|--------0-------|
D|----------------|0---------------|----------------|----------------|
A|----------------|----------------|----------------|3---------------|
E|3---------------|----------------|0---------------|----------------|

  G                D                Em               C
e|----3-------3---|----2-------2---|----3-------3---|----3-------3---|
B|--0---0---0---0-|--3---3---3---3-|--0---0---0---0-|--1---1---1---1-|
G|--------0-------|--------2-------|--------0-------|--------0-------|
D|----------------|0---------------|----------------|----------------|
A|----------------|----------------|----------------|3---------------|
E|3---------------|----------------|0---------------|----------------|

  G                D                Em               C
e|----3-------3---|----2-------2---|----3-------3---|----3-------3---|
B|--0---0---0---0-|--3---3---3---3-|--0---0---0---0-|--1---1---1---1-|
G|--------0-------|--------2-------|--------0-------|--------0-------|
D|----------------|0---------------|----------------|----------------|
A|----------------|----------------|----------------|3---------------|
E|3---------------|----------------|0---------------|----------------|

Soyez le premier à commenter

Poster un Commentaire

Votre adresse de messagerie ne sera pas publiée.




Time limit is exhausted. Please reload CAPTCHA.