Alanis Morissette – Hand In My Pocket

Share Button

Toutes les tablatures sont ici  http://guitarepourdebutant.fr/tablatures-faciles/

 

Alanis Morissette – Hand In My Pocket

 

----------|-------3------------3--|----------3------------3---|---------------|
----------|-----------3-3-3-3-----|--3-3--3------3-3-3-3------|---------------|
----------|-----------0-0-0-0-----|--0-0--0------0-0-0-0------|---------------|
----------|-----------------------|---------------------------|---------------|
----------|-----------------------|---------------------------|---------------|
----------|-3--3------------------|---------------------------|---------------|

----------|-------3------------3---|------------------------------------------|
----------|-----------3-3-3-3------|------------------------------------------|
----------|-----------0-0-0-0------|------------------------------------------|
----------|------------------------|------------------------------------------|
----------|------------------------|------------------------------------------|
----------|-3--3-------------------|------------------------------------------|

----------|-3---3------------3---0----3---------3---3------------3------3--3--|
----------|-3-------3-3-3-3------1---------3----3-------3-3-3-3------------3--|
----------|-0-------0-0-0-0------0--------------0-------0-0-0-0---------------|
----------|-3--------------------2--------------0-----------------------------|
----------|-3--------------------3--------------x-----------------------------|
----------|-1-----------------------------------3--------------------3--------|

-3-3--------------3------------3-------3-----------3---|-----------------|----|
-3-3-3-----3----------3-3-3-3--------------3-3-3-------|-----------------|----|
--------0--0----------0-0-0-0--------------0-0-0-------|-----------------|----|
-------------------------------------------------0-----|-----------------|----|
--------------3--------------------3-------------------|-----------------|----|
--------------1----------------------------------------|-----------------|----|