Beatles Blackbird

Share Button
Imprimer cette tablature Imprimer cette tablature

Toutes les tablatures sont ici  http://guitarepourdebutant.fr/tablatures-faciles/

Tablature :  Blackbird  des Beatles

E|---------------------------|-----------------------------------|
B|---0-------1-------3-------|---12----12--12----12----12--12----|
G|-------0-------0-------0---|-------0-------0-------0-------0---|
D|---------------------------|-----------------------------------|
A|-----------0-------2-------|---10------10------10------10------|
E|---3-----------------------|-----------------------------------|
E||---------------------------|-----------------------------------|
B||---0-------1-------3-------|---12----12--12----12----12--12----|
G||.------0-------0-------0---|-------0-------0-------0-------0---|
D||.--------------------------|-----------------------------------|
A||-----------0-------2-------|---10------10------10------10------|
E||---3-----------------------|-----------------------------------|
E |-----------3---------------5-------|-----------------------------------|
B |---5--(5)----------7--(7)----------|---8-----8---8-----8-----8---8-----|
G |-------0-------0-------0-------0---|-------0-------0-------0-------0---|
D |-----------------------------------|-----------------------------------|
A |---3-------4-------5-------6-------|---7-------7-------6-------6-------|
E |-----------------------------------|-----------------------------------|
E |-----------3----------------------------------------|
B |---7---------------5-----5---5------4-----4---4-----|
G |-------0-------0-------0-------0--------0-------0---|
D |----------------------------------------------------|
A |---5-------4-------3-------3--------3-------3-------|
E |----------------------------------------------------|
E |----------------------------------------------------|
B |---3-----3---3-----2-----2---2------1-----1---1-----|
G |-------0-------0-------0-------0--------0-------0---|
D |------------------------------------0-------0-------|
A |---2-------2-------0-------0------------------------|
E |----------------------------------------------------|
E |-----------------------------------|-----------------------------------|
B |---0-----0---0-----5-------3-------|---2-----2---2-----1-----1---1-----|
G |-------0-------0-------0-------0---|-------0-------0-------0-------0---|
D |-----------------------------------|-------------------0-------0-------|
A |-------------------3-------2-------|---0-------0-----------------------|
E |---3-------3-----------------------|-----------------------------------|
E |--------------------||-------------------|
B |---0-----0---0------||---0-----0---0-----|
G |-------0-------0---.||-------0-------0---|
D |-------------------.||-------------------|
A |--------------------||-------------------|
E |---3-------3--------||---3-------3-------|
E |-----------------------------------|-------------------0-----0---0-----|
B |---10------8-------6-------5-------|---3-----3---3---------------------|
G |-------0-------0-------0-------0---|-------0-------0-------0-------0---|
D |-----------------------------------|-----------------------------------|
A |---8-------7-------5-------3-------|---1-------1-------3-------3-------|
E |-----------------------------------|-----------------------------------|
E |-----------------------------------|-----------------------------------|
B |---10------8-------6-------5-------|---3-----3---3-----2-----2---2-----|
G |-------0-------0-------0-------0---|-------0-------0-------0-------0---|
D |-----------------------------------|-----------------------------------|
A |---8-------7-------5-------3-------|---1-------1-------0-------0-------|
E |-----------------------------------|-----------------------------------|
E |----------------------|
B |---1-----1---1----1---|
G |-------0-------0------|
D |---0-------0----------|
A |----------------------|
E |----------------------|
E |---------------------------|-----------------------------------|
B |---0-------1-------3-------|---12----12--12----12--12--12------|
G |-------0-------0-------0---|-------0-------0-------0-----------|
D |---------------------------|-----------------------------------|
A |-----------0-------2-------|---10------10------10------10------|
E |---3-----------------------|-----------------------------------|
E |-----------3---------------5-------|-----------------------------------|
B |---5---5-----------7---7-----------|---8-----8-----8---8-----8---8-----|
G |-------0-------0-------0-------0---|-------0-----0---------0-------0---| 
D |-----------------------------------|-----------------------------------| 
A |---3-------4-------5-------6-------|---7-------7-------6-------6-------| 
E |-----------------------------------|-----------------------------------|
E |-----------3----------------------------------------|
B |---7---------------5-----5---5------4-----4---4-----|
G |-------0-------0-------0-------0--------0-------0---|
D |----------------------------------------------------|
A |---5-------4-------3-------3--------3-------3-------|
E |----------------------------------------------------|
E |----------------------------------------------------|---------------|
B |---3-----3---3-----2-----2---2------1-----1---1-----|---0-----------|
G |-------0-------0-------0-------0--------0-------0---|---0-----------|
D |------------------------------------0-------0-------|---------------|
A |---2-------2-------0-------0------------------------|---------------|
E |----------------------------------------------------|---3-----------|
E |-----------------------------------|-------------------0-----0---0-----|
B |---10------8-------6-------5-------|---3-----3---3---------------------|
G |-------0-------0-------0-------0---|-------0-------0-------0-------0---|
D |-----------------------------------|-----------------------------------|
A |---8-------7-------5-------3-------|---1-------1-------3-------3-------|
E |-----------------------------------|-----------------------------------|
E |-----------------------------------|-----------------------------------|
B |---10------8-------6-------5-------|---3---3-------3---2-----2---2-----|
G |-------0-------0-------0-------0---|-------------0---------0-------0---|
D |-----------------------------------|-----------------------------------|
A |---8-------7-------5-------3-------|---1-------1-------0-------0-------|
E |-----------------------------------|-----------------------------------|
E |----------------------|
B |---1-----1---1----1---|
G |-------0-------0------|
D |---0-------0----------|
A |----------------------|
E |----------------------|
E |---------------------------|-----------------------------------|
B |---0-------1-------3-------|---12----12--12----12----12--12----|
G |---------------------------|-------0-------0-------0-------0---|
D |---------------------------|-----------------------------------|
A |-----------0-------2-------|-----------------------------------|
E |---3-----------------------|---10------10------10------10------|
E |-----------------------------------|-----------------------------------|
B |---12----12--12----12----12--12----|---12----12--12----12---------12/--|
G |-------0-------0-------0-------0---|-------0-------0---0---------------|
D |-----------------------------------|-----------------------------------|
A |---10------10------10------10------|---10------10------10---------10/--|
E |-----------------------------------|-----------------------------------|
E||------------------------------|---0-----------------------|
B||------0-------1-------3-------|-----------3-------2-------|
G||----------0-------0-------0---|-------0-------0-------0---|
D||------------------------------|---------------------------|
A||--------------0-------2-------|---3-------2-------0-------|
E||---10\3-----------------------|---------------------------|
E |------------------|
B |--1-----1---1-----|
G |------0-------0---|
D |--0-------0-------|
A |------------------|
E |------------------|
E||---------------------------|-----------------------------------|
B||---0-------1-------3-------|---12----12--12----12----12--12----|
G||.------0-------0-------0---|-------0-------0-------0-------0---|
D||.--------------------------|-----------------------------------|
A||-----------0-------2-------|---10------10------10------10------|
E||---3-----------------------|-----------------------------------|
E |-----------3---------------5-------|-----------------------------------|
B |---5---------------7---7-----------|---8-----8---8-----8-----8---8-----|
G |-------0-------0-------0-------0---|-------0-------0-------0-------0---|
D |-----------------------------------|-----------------------------------|
A |---3-------4-------5-------6-------|---7-------7-------6-------6-------|
E |-----------------------------------|-----------------------------------|
E |-----------3----------------------------------------|
B |---7---------------5---5-------5----4---4-------4---| 
G |-------0-------0---------0---0------------0---0-----|   
D |----------------------------------------------------|
A |---5-------4-------3-------3--------3-------3-------|
E |----------------------------------------------------|
E||-----------------------------------|-----------------------------------||
B||---3-----3---3-----2-----2---2-----|---1-----1---1-----0---------------||
G||.------0-------0-------0-------0---|-------0-------0---0--------------.||
D||.----------------------------------|---0-------0----------------------.||
A||---2-------2-------0-------0-------|-----------------------------------||
E||-----------------------------------|-------------------3---------------||

	

Soyez le premier à commenter

Poster un Commentaire

Votre adresse de messagerie ne sera pas publiée.




Time limit is exhausted. Please reload CAPTCHA.