Beatles Hey Jude

Share Button

Toutes les tablatures sont ici  http://guitarepourdebutant.fr/tablatures-faciles/
Tablature Beatles , Hey Jude

 

E|------|-1---1---1---1---1---1---1---1---|-8---8---8---8---8---8---8---8---|-8---8---8---8---8---8---8---8---|
B|------|-1---1---1---1---1---1---1---1---|-8---8---8---8---8---8---8---8---|-8---8---8---8---8---8---8---8---|
G|------|-2---2---2---2---2---2---2---2---|-9---9---9---9---9---9---9---9---|-9---9---9---9---9---9---9---9---|
D|------|-3---3---3---3---3---3---3---3---|-10--10--10--10--10--10--10--10--|-8---8---8---8---8---8---8---8---|
A|------|-3---3---3---3---3---3---3---3---|-10--10--10--10--10--10--10--10--|-10--10--10--10--10--10--10--10--|
E|------|-1---1---1---1---1---1---1---1---|-8---8---8---8---8---8---8---8---|-8---8---8---8---8---8---8---8---|

E|-1---1---1---1---1---1---1---1---|-6---6---6-------6-------6-------|-1---1---1---1---1---1---1---1---|
B|-1---1---1---1---1---1---1---1---|-6---6---6-------6-------6-------|-1---1---1---1---1---1---1---1---|
G|-2---2---2---2---2---2---2---2---|-7---7---7-------7-------7-------|-2---2---2---2---2---2---2---2---|
D|-3---3---3---3---3---3---3---3---|-8---8---8-------8-------8-------|-3---3---3---3---3---3---3---3---|
A|-3---3---3---3---3---3---3---3---|-8---8---8-------8-------8-------|-3---3---3---3---3---3---3---3---|
E|-1---1---1---1---1---1---1---1---|-6---6---6---6---6---6---6---6---|-1---1---1---1---1---1---1---1---|
E|-8---8---8---8---8---8---8---8---|-1---1---1---1---1---1---1---1---|-1---1---1---1---1---1---1---1---|
B|-8---8---8---8---8---8---8---8---|-1---1---1---1---1---1---1---1---|-1---1---1---1---1---1---1---1---|
G|-9---9---9---9---9---9---9---9---|-2---2---2---2---2---2---2---2---|-2---2---2---2---2---2---2---2---|
D|-8---8---8---8---8---8---8---8---|-3---3---3---3---3---3---3---3---|-3---3---3---3---3---3---3---3---|
A|-10--10--10--10--10--10--10--10--|-3---3---3---3---3---3---3---3---|-3---3---3---3---3---3---3---3---|
E|-8---8---8---8---8---8---8---8---|-1---1---1---1---1---1---1---1---|-1---1---1---1---1---1---1---1---|
E|-8---8---8---8---8---8---8---8---|-8---8---8---8---8---8---8---8---|-1---1---1---1---1---1---1---1---|
B|-8---8---8---8---8---8---8---8---|-8---8---8---8---8---8---8---8---|-1---1---1---1---1---1---1---1---|
G|-9---9---9---9---9---9---9---9---|-9---9---9---9---9---9---9---9---|-2---2---2---2---2---2---2---2---|
D|-10--10--10--10--10--10--10--10--|-8---8---8---8---8---8---8---8---|-3---3---3---3---3---3---3---3---|
A|-10--10--10--10--10--10--10--10--|-10--10--10--10--10--10--10--10--|-3---3---3---3---3---3---3---3---|
E|-8---8---8---8---8---8---8---8---|-8---8---8---8---8---8---8---8---|-1---1---1---1---1---1---1---1---|
E|-6---6---6---6---6---6---6---6---|-1---1---1---1---1---1---1---1---|-8---8---8---8---8---8---8---8---|
B|-6---6---6---6---6---6---6---6---|-1---1---1---1---1---1---1---1---|-8---8---8---8---8---8---8---8---|
G|-7---7---7---7---7---7---7---7---|-2---2---2---2---2---2---2---2---|-9---9---9---9---9---9---9---9---|
D|-8---8---8---8---8---8---8---8---|-3---3---3---3---3---3---3---3---|-8---8---8---8---8---8---8---8---|
A|-8---8---8---8---8---8---8---8---|-3---3---3---3---3---3---3---3---|-10--10--10--10--10--10--10--10--|
E|-6---6---6---6---6---6---6---6---|-1---1---1---1---1---1---1---1---|-8---8---8---8---8---8---8---8---|
E|-1---1---1---1---1---1---1---1---|-1---1---1---1---1---1---1---1---|-6---6---6---6---6---6---6---6---|
B|-1---1---1---1---1---1---1---1---|-1---1---1---1---1---1---1---1---|-6---6---6---6---6---6---6---6---|
G|-2---2---2---2---2---2---2---2---|-2---2---2---2---2---2---2---2---|-7---7---7---7---7---7---7---7---|
D|-3---3---3---3---3---3---3---3---|-1---1---1---1---1---1---1---1---|-8---8---8---8---8---8---8---8---|
A|-3---3---3---3---3---3---3---3---|-3---3---3---3---3---3---3---3---|-8---8---8---8---8---8---8---8---|
E|-1---1---1---1---1---1---1---1---|-1---1---1---1---1---1---1---1---|-6---6---6---6---6---6---6---6---|
E|-3---3---3---3---3---3---3---3---|-8---8---8---8---8---8---8---8---|-1---1---1---1---1---1---1---1---|
B|-3---3---3---3---3---3---3---3---|-8---8---8---8---8---8---8---8---|-1---1---1---1---1---1---1---1---|
G|-3---3---3---3---3---3---3---3---|-9---9---9---9---9---9---9---9---|-2---2---2---2---2---2---2---2---|
D|-3---3---3---3---3---3---3---3---|-8---8---8---8---8---8---8---8---|-3---3---3---3---3---3---3---3---|
A|-5---5---5---5---5---5---5---5---|-10--10--10--10--10--10--10--10--|-3---3---3---3---3---3---3---3---|
E|-3---3---3---3---3---3---3---3---|-8---8---8---8---8---8---8---8---|-1---1---1---1---1---1---1---1---|
E|-1---1---1---1---8---8---8---8---|-8-----------|
B|-1---1---1---1---8---8---8---8---|-8-----------|
G|-2---2---2---2---9---9---9---9---|-9-----------|
D|-1---1---1---1---8---8---8---8---|-8-----------|
A|-3---3---3---3---10--10--10--10--|-10----------|
E|-1---1---1---1---8---8---8---8---|-8-----------|