Guitare pour Débutant

Vous débutez la guitare ou vous souhaitez progresser ?

Black Veil Brides : COFFIN

Share Button

 

Toutes les tablatures sont ici  http://guitarepourdebutant.fr/tablatures-faciles/

Black Veil Brides : COFFIN
Guitare 1
D-----------------------------------------------------------------|
A-----------------------------------------------------------------|
F---------------------------------------------------5-7-9-7-5-----|
C-0~~-----------------------------0~~-------------------------8-7-|
G-0~~-----------------------------0~~-----------------------------|
C-0~~-----------------------------0~~-----------------------------|

Guitare 2
D-------------------------------------------------------------------|
A-------------------------------------------------------------------|
F-------------------------------------------------------------------|
C---------------------------------------------------7-8-10-8-7------|
G-------8p0-7p0-5p0-8-7-5---------------8p0-7p0-5p0------------10-8-|
C-0~~-0-------------------8-7-5-3-0~~-0-----------------------------|
pm    .                               .

Guitare 1
D-----------------------------------------------------------------|
A-----------------------------------------------------------------|
F-----------------------------------------------------------------|
C-0~~-----------------------------8~~-8-8-8-8-8-8-8---------------|
G-0~~-----------------------------8~~-8-8-8-8-8-8-8-7h8-5h7---5---|
C-0~~-----------------------------8~~-8-8-8-8-8-8-8---------8---7-|

Guitare 2
D-----------------------------------------------------------------|
A-----------------------------------------------------------------|
F-----------------------------------------------------------------|
C---------------------------------8~~-8-8-8-8-8-8-8---------------|
G-------8p0-7p0-5p0-8-7-5---------8~~-8-8-8-8-8-8-8-7h8-5h7---5---|
C-0~~-0-------------------8-7-5-3-8~~-8-8-8-8-8-8-8---------8---7-|

==================================================================

Guitare 1
D-------------------------------------------------------------------|
A-------------------------------------------------------------------|
F-------------------------------------------------------------------|
C---------------------------------------------------7-8-10-8-7------|
G-------8p0-7p0-5p0-8-7-5---------------8p0-7p0-5p0------------10-8-|
C-0~~-0-------------------8-7-5-3-0~~-0-----------------------------|
pm    .                               .

Guitare 2
D-----------------------------------------------------------------|
A-----------------------------------------------------------------|
F---------------------------------------------------5-7-9-7-5-----|
C-------------------------------------------------------------8-7-|
G-------8p0-7p0-5p0-8-7-5---------------8p0-7p0-5p0---------------|
C-0~~-0-------------------8-7-5-3-0~~-0---------------------------|
pm    .                               .

==================================================================

Guitare 1 & 2
D-----------------------------------------------------------------|
A-----------------------------------------------------------------|
F-----------------------------------------------------------------|
C---------------------------------8~~-8-8-8-8-8-8-8-ps\~~~~~~~~~~-|
G-------8p0-7p0-5p0-8-7-5---------8~~-8-8-8-8-8-8-8-ps\~~~~~~~~~~-|
C-0~~-0-------------------8-7-5-3-8~~-8-8-8-8-8-8-8-ps\~~~~~~~~~~-|

==================================================================
==================================================================

Guitare 1 & 2
D------------------------------------------------------------------|
A------------------------------------------------------------------|
F------------------------------------------------------------------|
C------------------------------------------------------------------|
G---------5-------7-------8---------------10------8---7---5---0~~~-|
C-0---0-------0-------0-------0---8---8-------8--------------------|
pm.   .       .       .       .   .   .       .

==================================================================

Guitare 1 & 2
D-----------------------------------------------------------------|
A-----------------------------------------------------------------|
F-----------------------------------------------------------------|
C-------------------------------------3---------------------------|
G-~~~-----5-------7-------8---------------5---4---3---------------|
C-----0-------0-------0-------0---5-------------------5---3---0---|
pm    .       .       .       .

==================================================================

Guitare 1 & 2
D------------------------------------------------------------------|
A------------------------------------------------------------------|
F------------------------------------------------------------------|
C------------------------------------------------------------------|
G---------5-------7-------8---------------10------8---7---5---0~~~-|
C-0---0-------0-------0-------0---8---8-------8--------------------|
pm.   .       .       .       .   .   .       .

==================================================================

Guitare 1 & 2
D-----------------------------------------------------------------|
A-----------------------------------------------------------------|
F-----------------------------------------------------------------|
C-------------------------------------3---------------------------|
G-~~~-----5-------7-------8---------------5---4---3---------------|
C-----0-------0-------0-------0---5-------------------5---3---0---|
pm    .       .       .       .

==================================================================

Guitare 1
D------------------------------------------------------------------|
A------------------------------------------------------------------|
F------------------------------------------------------------------|
C-----------------------------------------8------------------------|
G---------8-------10------12----------------------12--10--8---0~~~-|
C-0---0-------0-------0-------0---8---8-------8--------------------|
pm.   .       .       .       .   .   .       .

Guitare 2
D------------------------------------------------------------------|
A------------------------------------------------------------------|
F------------------------------------------------------------------|
C------------------------------------------------------------------|
G---------5-------7-------8---------------10------8---7---5---0~~~-|
C-0---0-------0-------0-------0---8---8-------8--------------------|
pm.   .       .       .       .   .   .       .

==================================================================

Guitare 1
D-----------------------------------------------------------------|
A-----------------------------------------------------------------|
F-----------------------------------------------------------------|
C-------------------------------------3---------------------------|
G-~~~-----8-------10------12--------------5---4---3---------------|
C-----0-------0-------0-------0---5-------------------5---3---0---|
pm    .       .       .       .

Guitare 2
D-----------------------------------------------------------------|
A-----------------------------------------------------------------|
F-----------------------------------------------------------------|
C-------------------------------------3---------------------------|
G-~~~-----5-------7-------8---------------5---4---3---------------|
C-----0-------0-------0-------0---5-------------------5---3---0---|
pm    .       .       .       .

==================================================================

Guitare 1
D------------------------------------------------------------------|
A------------------------------------------------------------------|
F------------------------------------------------------------------|
C-----------------------------------------8------------------------|
G---------8-------10------12----------------------12--10--8---0~~~-|
C-0---0-------0-------0-------0---8---8-------8--------------------|
pm.   .       .       .       .   .   .       .

Guitare 2
D------------------------------------------------------------------|
A------------------------------------------------------------------|
F------------------------------------------------------------------|
C------------------------------------------------------------------|
G---------5-------7-------8---------------10------8---7---5---0~~~-|
C-0---0-------0-------0-------0---8---8-------8--------------------|
pm.   .       .       .       .   .   .       .

==================================================================

Guitare 1
D-----------------------------------------------------------------|
A-----------------------------------------------------------------|
F-----------------------------------------------------------------|
C-------------------------------------3---------------------------|
G-~~~-----8-------10------12--------------5---4---3---------------|
C-----0-------0-------0-------0---5-------------------5---3---0---|
pm    .       .       .       .

Guitare 2
D-----------------------------------------------------------------|
A-----------------------------------------------------------------|
F-----------------------------------------------------------------|
C-------------------------------------3---------------------------|
G-~~~-----5-------7-------8---------------5---4---3---------------|
C-----0-------0-------0-------0---5-------------------5---3---0---|
pm    .       .       .       .

==================================================================
==================================================================

Guitare 1 & 2
D-----------------------------------------------------------------|
A-----------------------------------------------------------------|
F-----------------------------------------------------------------|
C-8---8---8---8---8---8---8---8---8---8---8---8---8---8---8---8---|
G-8---8---8---8---8---8---8---8---8---8---8---8---8---8---8---8---|
C-8---8---8---8---8---8---8---8---8---8---8---8---8---8---8---8---|

==================================================================

Guitare 1
D-----------------------------------------------------------------|
A-----------------------------------------------------------------|
F-----------------------------------------------------------------|
C-10--10--10--10--10--10--10--10----------------------------------|
G-10--10--10--10--10--10--10--10--8---10--10--12------------------|
C-10--10--10--10--10--10--10--10------------------10--8---7---8---|

Guitare 2
D-----------------------------------------------------------------|
A-----------------------------------------------------------------|
F-----------------------------------------------------------------|
C-10--10--10--10--10--10--10--10----------------------------------|
G-10--10--10--10--10--10--10--10--5---7---7---8-------------------|
C-10--10--10--10--10--10--10--10------------------10--8---7---8---|

==================================================================

Guitare 1 & 2
D-----------------------------------------------------------------|
A-----------------------------------------------------------------|
F-----------------------------------------------------------------|
C-8---8---8---8---8---8---8---8---8---8---8---8---8---8---8---8---|
G-8---8---8---8---8---8---8---8---8---8---8---8---8---8---8---8---|
C-8---8---8---8---8---8---8---8---8---8---8---8---8---8---8---8---|

==================================================================

Guitare 1 & 2
D-----------------------------------------------------------------|
A-----------------------------------------------------------------|
F-7---7---7---7---7---7---7---7-----------------------------------|
C-7---7---7---7---7---7---7---7---7---7---7---7---7---7---7---7---|
G-5---5---5---5---5---5---5---5---7---7---7---7---7---7---7---7---|
C---------------------------------7---7---7---7---7---7---7---7---|

==================================================================

Guitare 1 & 2
D-----------------------------------------------------------------|
A-----------------------------------------------------------------|
F-----------------------------------------------------------------|
C-8---8---8---8---8---8---8---8---8---8---8---8---8---8---8---8---|
G-8---8---8---8---8---8---8---8---8---8---8---8---8---8---8---8---|
C-8---8---8---8---8---8---8---8---8---8---8---8---8---8---8---8---|

==================================================================

Guitare 1
D-----------------------------------------------------------------|
A-----------------------------------------------------------------|
F-----------------------------------------------------------------|
C-10--10--10--10--10--10--10--10----------------------------------|
G-10--10--10--10--10--10--10--10--8---10--10--12------------------|
C-10--10--10--10--10--10--10--10------------------10--8---7---8---|

Guitare 2
D-----------------------------------------------------------------|
A-----------------------------------------------------------------|
F-----------------------------------------------------------------|
C-10--10--10--10--10--10--10--10----------------------------------|
G-10--10--10--10--10--10--10--10--5---7---7---8-------------------|
C-10--10--10--10--10--10--10--10------------------10--8---7---8---|

==================================================================

Guitare 1 & 2
D-----------------------------------------------------------------|
A-----------------------------------------------------------------|
F-----------------------------------------------------------------|
C-8---8---8---8---8---8---8---8---8---8---8---8---8---8---8---8---|
G-8---8---8---8---8---8---8---8---8---8---8---8---8---8---8---8---|
C-8---8---8---8---8---8---8---8---8---8---8---8---8---8---8---8---|

==================================================================

Guitare 1 & 2
D-----------------------------------------------------------------|
A-----------------------------------------------------------------|
F-----------------------------------------------------------------|
C-----------------------------------------------------------------|
G-----------------------------------------------------------------|
C-10~~~~~~~~~~~~~~~~~~~~~~~~~~~~~-11~~~~~~~~~~~~~~~~~~~~~~~~~~~~~-|

==================================================================
==================================================================

Guitare 1
D-----------------------------------------------------------------|
A-----------------------------------------------------------------|
F-7-7-7-7-7-7-7-7-7-7-7-7-7-7-7-7-5-5-5-5-5-5-5-5-5-5-5-5-5-5-5-5-|
C-7-7-7-7-7-7-7-7-7-7-7-7-7-7-7-7-5-5-5-5-5-5-5-5-5-5-5-5-5-5-5-5-|
G-5-5-5-5-5-5-5-5-5-5-5-5-5-5-5-5-3-3-3-3-3-3-3-3-3-3-3-3-3-3-3-3-|
C-----------------------------------------------------------------|

Guitare 2 
D---------17~~~~~-------------------------13--15--13--15----------|
A-15~~~~~---------18~~~~~-17~~~~~-13~~~~~-----------------17~~~~~-|
F-----------------------------------------------------------------|
C-----------------------------------------------------------------|
G-----------------------------------------------------------------|
C-----------------------------------------------------------------|

==================================================================

Guitare 1
D-----------------------------------------------------------------|
A-----------------------------------------------------------------|
F---------------------------------3-3-3-3-3-3-3-3-3-3-3-3-3-3-3-3-|
C-3-3-3-3-3-3-3-3-3-3-3-3-3-3-3-3-3-3-3-3-3-3-3-3-3-3-3-3-3-3-3-3-|
G-3-3-3-3-3-3-3-3-3-3-3-3-3-3-3-3-1-1-1-1-1-1-1-1-1-1-1-1-1-1-1-1-|
C-3-3-3-3-3-3-3-3-3-3-3-3-3-3-3-3---------------------------------|

Guitare 2
D-13------15------13------15------13------15------13------15------|
A-----13------13------13------13------13------13------13------13--|
F-----------------------------------------------------------------|
C-----------------------------------------------------------------|
G-----------------------------------------------------------------|
C-----------------------------------------------------------------|

==================================================================

Guitare 1
D-----------------------------------------------------------------|
A-----------------------------------------------------------------|
F-7-7-7-7-7-7-7-7-7-7-7-7-7-7-7-7-5-5-5-5-5-5-5-5-5-5-5-5-5-5-5-5-|
C-7-7-7-7-7-7-7-7-7-7-7-7-7-7-7-7-5-5-5-5-5-5-5-5-5-5-5-5-5-5-5-5-|
G-5-5-5-5-5-5-5-5-5-5-5-5-5-5-5-5-3-3-3-3-3-3-3-3-3-3-3-3-3-3-3-3-|
C-----------------------------------------------------------------|

Guitare 2 
D---------17~~~~~-------------------------13--15--13--15----------|
A-15~~~~~---------18~~~~~-17~~~~~-13~~~~~-----------------17~~~~~-|
F-----------------------------------------------------------------|
C-----------------------------------------------------------------|
G-----------------------------------------------------------------|
C-----------------------------------------------------------------|

==================================================================

Guitare 1
D-----------------------------------------------------------------|
A-----------------------------------------------------------------|
F-----------------------------------------------------------------|
C-3-3-3-3-3-3-3-3-3-3-3-3-3-3-3-3-7-7-7-7-7-7-7-7-7~~-5~~-3~~-2~~-|
G-3-3-3-3-3-3-3-3-3-3-3-3-3-3-3-3-7-7-7-7-7-7-7-7-7~~-5~~-3~~-2~~-|
C-3-3-3-3-3-3-3-3-3-3-3-3-3-3-3-3-7-7-7-7-7-7-7-7-7~~-5~~-3~~-2~~-|

Guitare 2
D-13------15------13------15------12------13------12--10----------|
A-----13------13------13------13------12------12----------13--12--|
F-----------------------------------------------------------------|
C-----------------------------------------------------------------|
G-----------------------------------------------------------------|
C-----------------------------------------------------------------|

==================================================================
==================================================================

Guitare 1
D-----------------------------------------------------------------|
A-----------------------------------------------------------------|
F---------------------------------------------------5-7-9-7-5-----|
C-0~~-----------------------------0~~-------------------------8-7-|
G-0~~-----------------------------0~~-----------------------------|
C-0~~-----------------------------0~~-----------------------------|

Guitare 2
D-------------------------------------------------------------------|
A-------------------------------------------------------------------|
F-------------------------------------------------------------------|
C---------------------------------------------------7-8-10-8-7------|
G-------8p0-7p0-5p0-8-7-5---------------8p0-7p0-5p0------------10-8-|
C-0~~-0-------------------8-7-5-3-0~~-0-----------------------------|
pm    .                               .

==================================================================

Guitare 1
D-----------------------------------------------------------------|
A-----------------------------------------------------------------|
F-----------------------------------------------------------------|
C-0~~-----------------------------8~~-8-8-8-8-8-8-8---------------|
G-0~~-----------------------------8~~-8-8-8-8-8-8-8-7h8-5h7---5---|
C-0~~-----------------------------8~~-8-8-8-8-8-8-8---------8---7-|

Guitare 2
D-----------------------------------------------------------------|
A-----------------------------------------------------------------|
F-----------------------------------------------------------------|
C---------------------------------8~~-8-8-8-8-8-8-8---------------|
G-------8p0-7p0-5p0-8-7-5---------8~~-8-8-8-8-8-8-8-7h8-5h7---5---|
C-0~~-0-------------------8-7-5-3-8~~-8-8-8-8-8-8-8---------8---7-|

==================================================================

Guitare 1 & 2
D-----------------|
A-----------------|
F-----------------|
C-----------------|
G-----------------|
C-8-5-7-3-5-2-3-2-|

==================================================================
==================================================================

Guitare 1 & 2
D-----------------------------------------------------------------|
A-----------------------------------------------------------------|
F-----------------------------------------------------------------|
C-----------------------------------------------------------------|
G-----------------------------------------------------5---7---8---|
C-0~~~~~~-0---0-0-0---0---0-------0---0-0-0---0---0---------------|
pm        .   . . .   .           .   . . .   .   .

==================================================================

Guitare 1 & 2
D-----------------------------------------------------------------|
A-----------------------------------------------------------------|
F-----------------------------------------------------------------|
C-----------------------------------------------------------------|
G-----------------------------------------------------8---7---5---|
C-0~~~~~~-0---0-0-0---0---0-------0---0-0-0---0---0---------------|
pm        .   . . .   .           .   . . .   .   .

==================================================================

Guitare 1 & 2
D-----------------------------------------------------------------|
A-----------------------------------------------------------------|
F-----------------------------------------------------------------|
C-----------------------------------------------------------------|
G-----------------------------------------------------5---7---8---|
C-8~~~~~~-8---8-8-8---8---8-------8---8-8-8---8---8---------------|
pm        .   . . .   .           .   . . .   .   .

==================================================================

Guitare 1 & 2
D-----------------------------------------------------------------|
A-----------------------------------------------------------------|
F-----------------------------------------------------------------|
C-----------------------------------------------------------------|
G-----------------------------------------------------5---4---3---|
C-7~~~~~~-7---7-7-7---7---7-------7---7-7-7---7---7---------------|
pm        .   . . .   .           .   . . .   .   .

==================================================================

Guitare 1 & 2
D-----------------------------------------------------------------|
A-----------------------------------------------------------------|
F-----------------------------------------------------------------|
C-----------------------------------------------------------------|
G-----------------------------------------------------5---7---8---|
C-0~~~~~~-0---0-0-0---0---0-------0---0-0-0---0---0---------------|
pm        .   . . .   .           .   . . .   .   .

==================================================================

Guitare 1 & 2
D-----------------------------------------------------------------|
A-----------------------------------------------------------------|
F-----------------------------------------------------------------|
C-----------------------------------------------------------------|
G-----------------------------------------------------8---7---5---|
C-0~~~~~~-0---0-0-0---0---0-------0---0-0-0---0---0---------------|
pm        .   . . .   .           .   . . .   .   .

==================================================================

Guitare 1 & 2
D-----------------------------------------------------------------|
A-----------------------------------------------------------------|
F-----------------------------------------------------------------|
C-----------------------------------------------------------------|
G-----------------------------------------------------5---7---8---|
C-8~~~~~~-8---8-8-8---8---8-------8---8-8-8---8---8---------------|
pm        .   . . .   .           .   . . .   .   .

==================================================================

Guitare 1 & 2
D---------------------------------------------------------------------|
A---------------------------------------------------------------------|
F---------------------------------------------------------------------|
C---------------------------------------------------------------------|
G-----------------------------------------------------5---4---3-------|
C-7~~~~~~-7---7-7-7---7---7-------7---7-7-7---7---7---------------0---|
pm        .   . . .   .           .   . . .   .   .

==================================================================
==================================================================

Guitare 1 & 2
D-----------------------------------------------------------------|
A-----------------------------------------------------------------|
F-----------------------------------------------------------------|
C-8---8---8---8---8---8---8---8---8---8---8---8---8---8---8---8---|
G-8---8---8---8---8---8---8---8---8---8---8---8---8---8---8---8---|
C-8---8---8---8---8---8---8---8---8---8---8---8---8---8---8---8---|

==================================================================

Guitare 1
D-----------------------------------------------------------------|
A-----------------------------------------------------------------|
F-----------------------------------------------------------------|
C-10--10--10--10--10--10--10--10----------------------------------|
G-10--10--10--10--10--10--10--10--8---10--10--12------------------|
C-10--10--10--10--10--10--10--10------------------10--8---7---8---|

Guitare 2
D-----------------------------------------------------------------|
A-----------------------------------------------------------------|
F-----------------------------------------------------------------|
C-10--10--10--10--10--10--10--10----------------------------------|
G-10--10--10--10--10--10--10--10--5---7---7---8-------------------|
C-10--10--10--10--10--10--10--10------------------10--8---7---8---|

==================================================================

Guitare 1 & 2
D-----------------------------------------------------------------|
A-----------------------------------------------------------------|
F-----------------------------------------------------------------|
C-8---8---8---8---8---8---8---8---8---8---8---8---8---8---8---8---|
G-8---8---8---8---8---8---8---8---8---8---8---8---8---8---8---8---|
C-8---8---8---8---8---8---8---8---8---8---8---8---8---8---8---8---|

==================================================================

Guitare 1 & 2
D-----------------------------------------------------------------|
A-----------------------------------------------------------------|
F-7---7---7---7---7---7---7---7-----------------------------------|
C-7---7---7---7---7---7---7---7---7---7---7---7---7---7---7---7---|
G-5---5---5---5---5---5---5---5---7---7---7---7---7---7---7---7---|
C---------------------------------7---7---7---7---7---7---7---7---|

==================================================================

Guitare 1 & 2
D-----------------------------------------------------------------|
A-----------------------------------------------------------------|
F-----------------------------------------------------------------|
C-8---8---8---8---8---8---8---8---8---8---8---8---8---8---8---8---|
G-8---8---8---8---8---8---8---8---8---8---8---8---8---8---8---8---|
C-8---8---8---8---8---8---8---8---8---8---8---8---8---8---8---8---|

==================================================================

Guitare 1
D-----------------------------------------------------------------|
A-----------------------------------------------------------------|
F-----------------------------------------------------------------|
C-10--10--10--10--10--10--10--10----------------------------------|
G-10--10--10--10--10--10--10--10--8---10--10--12------------------|
C-10--10--10--10--10--10--10--10------------------10--8---7---8---|

Guitare 2
D-----------------------------------------------------------------|
A-----------------------------------------------------------------|
F-----------------------------------------------------------------|
C-10--10--10--10--10--10--10--10----------------------------------|
G-10--10--10--10--10--10--10--10--5---7---7---8-------------------|
C-10--10--10--10--10--10--10--10------------------10--8---7---8---|

==================================================================

Guitare 1 & 2
D-----------------------------------------------------------------|
A-----------------------------------------------------------------|
F-----------------------------------------------------------------|
C-8---8---8---8---8---8---8---8---8---8---8---8---8---8---8---8---|
G-8---8---8---8---8---8---8---8---8---8---8---8---8---8---8---8---|
C-8---8---8---8---8---8---8---8---8---8---8---8---8---8---8---8---|

==================================================================

Guitare 1 & 2
D-----------------------------------------------------------------|
A-----------------------------------------------------------------|
F-----------------------------------------------------------------|
C-----------------------------------------------------------------|
G-----------------------------------------------------------------|
C-10~~~~~~~~~~~~~~~~~~~~~~~~~~~~~-11~~~~~~~~~~~~~~~~~~~~~~~~~~~~~-|

==================================================================
==================================================================

Guitare 1
D-----------------------------------------------------------------|
A-----------------------------------------------------------------|
F-7-7-7-7-7-7-7-7-7-7-7-7-7-7-7-7-5-5-5-5-5-5-5-5-5-5-5-5-5-5-5-5-|
C-7-7-7-7-7-7-7-7-7-7-7-7-7-7-7-7-5-5-5-5-5-5-5-5-5-5-5-5-5-5-5-5-|
G-5-5-5-5-5-5-5-5-5-5-5-5-5-5-5-5-3-3-3-3-3-3-3-3-3-3-3-3-3-3-3-3-|
C-----------------------------------------------------------------|

Guitare 2 
D---------17~~~~~-------------------------13--15--13--15----------|
A-15~~~~~---------18~~~~~-17~~~~~-13~~~~~-----------------17~~~~~-|
F-----------------------------------------------------------------|
C-----------------------------------------------------------------|
G-----------------------------------------------------------------|
C-----------------------------------------------------------------|

==================================================================

Guitare 1
D-----------------------------------------------------------------|
A-----------------------------------------------------------------|
F---------------------------------3-3-3-3-3-3-3-3-3-3-3-3-3-3-3-3-|
C-3-3-3-3-3-3-3-3-3-3-3-3-3-3-3-3-3-3-3-3-3-3-3-3-3-3-3-3-3-3-3-3-|
G-3-3-3-3-3-3-3-3-3-3-3-3-3-3-3-3-1-1-1-1-1-1-1-1-1-1-1-1-1-1-1-1-|
C-3-3-3-3-3-3-3-3-3-3-3-3-3-3-3-3---------------------------------|

Guitare 2
D-13------15------13------15------13------15------13------15------|
A-----13------13------13------13------13------13------13------13--|
F-----------------------------------------------------------------|
C-----------------------------------------------------------------|
G-----------------------------------------------------------------|
C-----------------------------------------------------------------|

==================================================================

Guitare 1
D-----------------------------------------------------------------|
A-----------------------------------------------------------------|
F-7-7-7-7-7-7-7-7-7-7-7-7-7-7-7-7-5-5-5-5-5-5-5-5-5-5-5-5-5-5-5-5-|
C-7-7-7-7-7-7-7-7-7-7-7-7-7-7-7-7-5-5-5-5-5-5-5-5-5-5-5-5-5-5-5-5-|
G-5-5-5-5-5-5-5-5-5-5-5-5-5-5-5-5-3-3-3-3-3-3-3-3-3-3-3-3-3-3-3-3-|
C-----------------------------------------------------------------|

Guitare 2 
D---------17~~~~~-------------------------13--15--13--15----------|
A-15~~~~~---------18~~~~~-17~~~~~-13~~~~~-----------------17~~~~~-|
F-----------------------------------------------------------------|
C-----------------------------------------------------------------|
G-----------------------------------------------------------------|
C-----------------------------------------------------------------|

==================================================================

Guitare 1
D-----------------------------------------------------------------|
A-----------------------------------------------------------------|
F-----------------------------------------------------------------|
C-3-3-3-3-3-3-3-3-3-3-3-3-3-3-3-3-7-7-7-7-7-7-7-7-7~~-5~~-3~~-2~~-|
G-3-3-3-3-3-3-3-3-3-3-3-3-3-3-3-3-7-7-7-7-7-7-7-7-7~~-5~~-3~~-2~~-|
C-3-3-3-3-3-3-3-3-3-3-3-3-3-3-3-3-7-7-7-7-7-7-7-7-7~~-5~~-3~~-2~~-|

Guitare 2
D-13------15------13------15------12------13------12--10----------|
A-----13------13------13------13------12------12----------13--12--|
F-----------------------------------------------------------------|
C-----------------------------------------------------------------|
G-----------------------------------------------------------------|
C-----------------------------------------------------------------|

==================================================================
==================================================================

Guitare 1
D-----------------------------------------------------------------|
A-----------------------------------------------------------------|
F-----------------------------------------------------------------|
C-----------------------------------------------------------------|
G-----------------------------------------------------------------|
C-0-0-0-----0-0-0-----0-0-0-----0-0-0-----0-0-0---0-0-0---0-0-0---|
pm. . .     . . .     . . .     . . .     . . .   . . .   . . .

Guitare 2
D-----------------------------------------------------------------|
A-----------------------------------------------------------------|
F-----------------------------------------------------------------|
C-----------------------------------------------------------------|
G-----------------------------------------------------------------|
C-0-0-0-----------------------------------------------------------|
pm. . .

==================================================================

Guitare 1
D-----------------------------------------------------------------|
A-----------------------------------------------------------------|
F-----------------------------------------------------------------|
C---------------------------------------------5---7---8~~~\~~~~~~-|
G---------------------------------5---7---8-----------------------|
C-0-0-0-----0-0-0-----0-0-0---0-----------------------------------|
pm. . .     . . .     . . .   .   .   .   .   .   .

==================================================================

Guitare 1
D-----------------------------------------------------------------|
A-----------------------------------------------------------------|
F-----------------------------------------------------------------|
C-----------------------------------------------------------------|
G-----------------------------------------------------------------|
C-0-0-0-----------------------------------------------------------|
pm. . .

Guitare 2
D-----------------------------------------------------------------|
A-----------------------------------------------------------------|
F-----------------------------------------------------------------|
C-----------------------------------------------------------------|
G-----------------------------------------------------------------|
C-0-0-0-----0-0-0-----0-0-0-----0-0-0-----0-0-0---0-0-0---0-0-0---|
pm. . .     . . .     . . .     . . .     . . .   . . .   . . .

==================================================================

Guitare 2
D-----------------------------------------------------------------|
A-----------------------------------------------------------------|
F---------------------------------------------12--14--15~~\~~~~~~-|
C-----------------------------0---12--14--15----------------------|
G-----------------------------------------------------------------|
C-0-0-0-----0-0-0-----0-0-0---------------------------------------|
pm. . .     . . .     . . .   .   .   .   .   .   .

==================================================================
==================================================================

Guitare 1 & 2
D-----------------------------------------------------------------|
A-----------------------------------------------------------------|
F-----------------------------------------------------------------|
C-----------------------------------------------------------------|
G-----------------------------------------------------------------|
C-0-0-0-----0-0-0-----0-0-0-----0-0-0-----0-0-0---0-0-0---0-0-0---|
pm. . .     . . .     . . .     . . .     . . .   . . .   . . .

==================================================================

Guitare 1
D-----------------------------------------------------------------|
A-----------------------------------------------------------------|
F-----------------------------------------------------------------|
C---------------------------------------------5---7---8~~~\~~~~~~-|
G---------------------------------5---7---8-----------------------|
C-0-0-0-----0-0-0-----0-0-0---0-----------------------------------|
pm. . .     . . .     . . .   .   .   .   .   .   .

Guitare 2
D-----------------------------------------------------------------|
A-----------------------------------------------------------------|
F-----------------------------------------------------------------|
C---------------------------------------------8---10--12~~\~~~~~~-|
G---------------------------------8---10--12----------------------|
C-0-0-0-----0-0-0-----0-0-0---0-----------------------------------|
pm. . .     . . .     . . .   .   .   .   .   .   .

==================================================================

Guitare 1 & 2
D-----------------------------------------------------------------|
A-----------------------------------------------------------------|
F-----------------------------------------------------------------|
C-----------------------------------------------------------------|
G-----------------------------------------------------------------|
C-0-0-0-----0-0-0-----0-0-0-----0-0-0-----0-0-0---0-0-0---0-0-0---|
pm. . .     . . .     . . .     . . .     . . .   . . .   . . .

==================================================================

Guitare 1
D-----------------------------------------------------------------|
A-----------------------------------------------------------------|
F---------------------------------------------12--14--15~~\~~~~~~-|
C-----------------------------0---12--14--15----------------------|
G-----------------------------------------------------------------|
C-0-0-0-----0-0-0-----0-0-0---------------------------------------|
pm. . .     . . .     . . .   .   .   .   .   .   .

Guitare 2
D-----------------------------------------------------------------|
A---------------------------------------------12--14--15~~\~~~~~~-|
F---------------------------------12--13--15----------------------|
C-----------------------------0-----------------------------------|
G-----------------------------------------------------------------|
C-0-0-0-----0-0-0-----0-0-0---------------------------------------|
pm. . .     . . .     . . .   .   .   .   .   .   .

==================================================================
==================================================================

Guitare 1 & 2
D-----------------------------------------------------------------|
A-----------------------------------------------------------------|
F-----------------------------------------------------------------|
C-8~~~~~~~~~~~~~~~~~~~~~~~~~~~~~~-7~~~~~~~~~~~~~~-7*~~~~~~~~~~~~~-|
G-8~~~~~~~~~~~~~~~~~~~~~~~~~~~~~~-7~~~~~~~~~~~~~~-----------------|
C-8~~~~~~~~~~~~~~~~~~~~~~~~~~~~~~-7~~~~~~~~~~~~~~-----------------|

==================================================================
==================================================================

Guitare Solo

Guitar 1
D-----------------------------------------------------------------|
A-----------------------------------------------------------------|
F-----------------------------------------------------------------|
C-----------------------------------------------------------------|
G-------------------------------------------------------------3-5-|
C-0~~-0-8-8-7-7-5-5-7-7-5-5-3-3-5-0~~-0-8-8-7-7-5-5-7-7-5-5-0-----|
pm                                                          .

Guitare 2 (x2)
D-17p13-------------17p13-------------17p13-------------15p12-------------|
A-------15-------15-------15-------15-------15-------15-------13-------13-|
F----------14-14-------------14-14-------------14-14-------------12-12----|
C-------------------------------------------------------------------------|
G-------------------------------------------------------------------------|
C-------------------------------------------------------------------------|

==================================================================

Guitare 1
D-----------------------------------------------------------------|
A-----------------------------------------------------------------|
F-----------------------------------------------------------------|
C---------------------------------3~~-3-3-3-3-3-3-3-5-5-5-5-------|
G---------------------------------3~~-3-3-3-3-3-3-3-5-5-5-5---3-5-|
C-0~~-0-8-8-7-7-5-5-7-7-5-5-3-3-5-3~~-3-3-3-3-3-3-3-5-5-5-5-0-----|
pm                                                          .

Guitare 2
D-13p10-------------13p10-------------13p10-------------12p9--------------|
A-------11-------11-------11-------11-------11-------11-------10-------10-|
F----------10-10-------------10-10-------------10-10-------------9--9-----|
C-------------------------------------------------------------------------|
G-------------------------------------------------------------------------|
C-------------------------------------------------------------------------|

Guitare 2 continue
D-13p10-------------13p10-------------13p10-------------15p12-------------|
A-------11-------11-------11-------11-------11-------11-------13-------13-|
F----------10-10-------------10-10-------------10-10-------------12-12----|
C-------------------------------------------------------------------------|
G-------------------------------------------------------------------------|
C-------------------------------------------------------------------------|

==================================================================

Guitare 1
D-----------------------------------------------------------------|
A-----------------------------------------------------------------|
F-----------------------------------------------------------------|
C-----------------------------------------------------------------|
G-------------------------------------------------------------3-5-|
C-0~~-0-8-8-7-7-5-5-7-7-5-5-3-3-5-0~~-0-8-8-7-7-5-5-7-7-5-5-0-----|
pm                                                          .

Guitare 2
D-16-17-17-17-17-17----16-17-16-------------------------------------|
A-------------------18----------18-17-15-18-17-15-------------------|
F-------------------------------------------------16-14-13-16-14-13-|
C-------------------------------------------------------------------|
G-------------------------------------------------------------------|
C-------------------------------------------------------------------|

Guitare 2 continue
D-------------------------------------------------------------------------|
A-------------------------------------------------------------15-15-17-17-|
F-------------------------------------------------14-14-16-16-------------|
C-15-14-12-15-14-12-------------------14-14-15-15-------------------------|
G-------------------15-14-12-15-14-12-------------------------------------|
C-------------------------------------------------------------------------|

==================================================================

Guitare 1
D-----------------------------------------------------------------|
A-----------------------------------------------------------------|
F-----------------------------------------------------------------|
C---------------------------------3~~-3-3-3-3-3-3-3-5-5-5-5-------|
G---------------------------------3~~-3-3-3-3-3-3-3-5-5-5-5---3-5-|
C-0~~-0-8-8-7-7-5-5-7-7-5-5-3-3-5-3~~-3-3-3-3-3-3-3-5-5-5-5-0-----|
pm                                                          .

Guitare 2
D-------16-17-16---------------------------------13--15--16~b~r~~-|
A-18-18----------18-17-15~~\~~---------------15-------------------|
F-----------------------------------------------------------------|
C-----------------------------------------------------------------|
G-----------------------------------------------------------------|
C-----------------------------------------------------------------|

Guitare 2 continue
D----------------------------------------|
A----------------------------------------|
F-----------------------------t12p5t12p5-|
C--------------t12p6t11p5t10p5-----------|
Gt11p5t10p3t8p3--------------------------|
C----------------------------------------|

Guitare 2 continue
Dt16p12t16p12t15p11-------------------|
A------------------t17p12t17p12t16p11-|
F-------------------------------------|
C-------------------------------------|
G-------------------------------------|
C-------------------------------------|

==================================================================
==================================================================

Guitare 1
D-----------------------------------------------------------------|
A-----------------------------------------------------------------|
F-----------------------------------------------------------------|
C-8---8---8---8---8---8---8---8---8---8---8---8---8---8---8---8---|
G-8---8---8---8---8---8---8---8---8---8---8---8---8---8---8---8---|
C-8---8---8---8---8---8---8---8---8---8---8---8---8---8---8---8---|

Guitare 2
D-13*~~~~~~~~~~~~~\~~~~~~-----------------------------------------|
A-----------------------------------------------------------------|
F-----------------------------------------------------------------|
C-----------------------------------------------------------------|
G-----------------------------------------------------------------|
C-----------------------------------------------------------------|

==================================================================

Guitare 1
D-----------------------------------------------------------------|
A-----------------------------------------------------------------|
F-----------------------------------------------------------------|
C-10--10--10--10--10--10--10--10----------------------------------|
G-10--10--10--10--10--10--10--10--8---10--10--12------------------|
C-10--10--10--10--10--10--10--10------------------10--8---7---8---|

Guitare 2
D-----------------------------------------------------------------|
A-----------------------------------------------------------------|
F-----------------------------------------------------------------|
C-10--10--10--10--10--10--10--10----------------------------------|
G-10--10--10--10--10--10--10--10--5---7---7---8-------------------|
C-10--10--10--10--10--10--10--10------------------10--8---7---8---|

==================================================================

Guitare 1 & 2
D-----------------------------------------------------------------|
A-----------------------------------------------------------------|
F-----------------------------------------------------------------|
C-8---8---8---8---8---8---8---8---8---8---8---8---8---8---8---8---|
G-8---8---8---8---8---8---8---8---8---8---8---8---8---8---8---8---|
C-8---8---8---8---8---8---8---8---8---8---8---8---8---8---8---8---|

==================================================================

Guitare 1 & 2
D-----------------------------------------------------------------|
A-----------------------------------------------------------------|
F-----------------------------------------------------------------|
C-----------------------------------------------------------------|
G-----------------------------------------------------------------|
C-10~~~~~~~~~~~~~~~~~~~~~~~~~~~~~-11~~~~~~~~~~~~~~~~~~~~~~~~~~~~~-|

==================================================================
==================================================================

Guitare 1
D-----------------------------------------------------------------|
A-----------------------------------------------------------------|
F-7-7-7-7-7-7-7-7-7-7-7-7-7-7-7-7-5-5-5-5-5-5-5-5-5-5-5-5-5-5-5-5-|
C-7-7-7-7-7-7-7-7-7-7-7-7-7-7-7-7-5-5-5-5-5-5-5-5-5-5-5-5-5-5-5-5-|
G-5-5-5-5-5-5-5-5-5-5-5-5-5-5-5-5-3-3-3-3-3-3-3-3-3-3-3-3-3-3-3-3-|
C-----------------------------------------------------------------|

Guitare 2 
D---------17~~~~~-------------------------13--15--13--15----------|
A-15~~~~~---------18~~~~~-17~~~~~-13~~~~~-----------------17~~~~~-|
F-----------------------------------------------------------------|
C-----------------------------------------------------------------|
G-----------------------------------------------------------------|
C-----------------------------------------------------------------|

==================================================================

Guitare 1
D-----------------------------------------------------------------|
A-----------------------------------------------------------------|
F---------------------------------3-3-3-3-3-3-3-3-3-3-3-3-3-3-3-3-|
C-3-3-3-3-3-3-3-3-3-3-3-3-3-3-3-3-3-3-3-3-3-3-3-3-3-3-3-3-3-3-3-3-|
G-3-3-3-3-3-3-3-3-3-3-3-3-3-3-3-3-1-1-1-1-1-1-1-1-1-1-1-1-1-1-1-1-|
C-3-3-3-3-3-3-3-3-3-3-3-3-3-3-3-3---------------------------------|

Guitare 2
D-13------15------13------15------13------15------13------15------|
A-----13------13------13------13------13------13------13------13--|
F-----------------------------------------------------------------|
C-----------------------------------------------------------------|
G-----------------------------------------------------------------|
C-----------------------------------------------------------------|

==================================================================

Guitare 1
D-----------------------------------------------------------------|
A-----------------------------------------------------------------|
F-7-7-7-7-7-7-7-7-7-7-7-7-7-7-7-7-5-5-5-5-5-5-5-5-5-5-5-5-5-5-5-5-|
C-7-7-7-7-7-7-7-7-7-7-7-7-7-7-7-7-5-5-5-5-5-5-5-5-5-5-5-5-5-5-5-5-|
G-5-5-5-5-5-5-5-5-5-5-5-5-5-5-5-5-3-3-3-3-3-3-3-3-3-3-3-3-3-3-3-3-|
C-----------------------------------------------------------------|

Guitare 2 
D---------17~~~~~-------------------------13--15--13--15----------|
A-15~~~~~---------18~~~~~-17~~~~~-13~~~~~-----------------17~~~~~-|
F-----------------------------------------------------------------|
C-----------------------------------------------------------------|
G-----------------------------------------------------------------|
C-----------------------------------------------------------------|

==================================================================

Guitare 1
D-----------------------------------------------------------------|
A-----------------------------------------------------------------|
F-----------------------------------------------------------------|
C-3-3-3-3-3-3-3-3-3-3-3-3-3-3-3-3-7-7-7-7-7-7-7-7-7-7-7-7-7-7-7-7-|
G-3-3-3-3-3-3-3-3-3-3-3-3-3-3-3-3-7-7-7-7-7-7-7-7-7-7-7-7-7-7-7-7-|
C-3-3-3-3-3-3-3-3-3-3-3-3-3-3-3-3-7-7-7-7-7-7-7-7-7-7-7-7-7-7-7-7-|

Guitare 2
D-13------15------13------15------12------13------12------13------|
A-----13------13------13------13------12------12------12------12--|
F-----------------------------------------------------------------|
C-----------------------------------------------------------------|
G-----------------------------------------------------------------|
C-----------------------------------------------------------------|

==================================================================

Guitare 1
D-----------------------------------------------------------------|
A-----------------------------------------------------------------|
F-7-7-7-7-7-7-7-7-7-7-7-7-7-7-7-7-5-5-5-5-5-5-5-5-5-5-5-5-5-5-5-5-|
C-7-7-7-7-7-7-7-7-7-7-7-7-7-7-7-7-5-5-5-5-5-5-5-5-5-5-5-5-5-5-5-5-|
G-5-5-5-5-5-5-5-5-5-5-5-5-5-5-5-5-3-3-3-3-3-3-3-3-3-3-3-3-3-3-3-3-|
C-----------------------------------------------------------------|

Guitare 2 
D---------17~~~~~-------------------------13--15--13--15----------|
A-15~~~~~---------18~~~~~-17~~~~~-13~~~~~-----------------17~~~~~-|
F-----------------------------------------------------------------|
C-----------------------------------------------------------------|
G-----------------------------------------------------------------|
C-----------------------------------------------------------------|

==================================================================

Guitare 1
D-----------------------------------------------------------------|
A-----------------------------------------------------------------|
F---------------------------------3-3-3-3-3-3-3-3-3-3-3-3-3-3-3-3-|
C-3-3-3-3-3-3-3-3-3-3-3-3-3-3-3-3-3-3-3-3-3-3-3-3-3-3-3-3-3-3-3-3-|
G-3-3-3-3-3-3-3-3-3-3-3-3-3-3-3-3-1-1-1-1-1-1-1-1-1-1-1-1-1-1-1-1-|
C-3-3-3-3-3-3-3-3-3-3-3-3-3-3-3-3---------------------------------|

Guitare 2
D-13------15------13------15------13------15------13------15------|
A-----13------13------13------13------13------13------13------13--|
F-----------------------------------------------------------------|
C-----------------------------------------------------------------|
G-----------------------------------------------------------------|
C-----------------------------------------------------------------|

==================================================================

Guitare 1
D-----------------------------------------------------------------|
A-----------------------------------------------------------------|
F-7-7-7-7-7-7-7-7-7-7-7-7-7-7-7-7-5-5-5-5-5-5-5-5-5-5-5-5-5-5-5-5-|
C-7-7-7-7-7-7-7-7-7-7-7-7-7-7-7-7-5-5-5-5-5-5-5-5-5-5-5-5-5-5-5-5-|
G-5-5-5-5-5-5-5-5-5-5-5-5-5-5-5-5-3-3-3-3-3-3-3-3-3-3-3-3-3-3-3-3-|
C-----------------------------------------------------------------|

Guitare 2
D---------17~~~~~-------------------------13--15--13--15----------|
A-15~~~~~---------18~~~~~-17~~~~~-13~~~~~-----------------17~~~~~-|
F-----------------------------------------------------------------|
C-----------------------------------------------------------------|
G-----------------------------------------------------------------|
C-----------------------------------------------------------------|

==================================================================

Guitare 1
D-----------------------------------------------------------------|
A-----------------------------------------------------------------|
F-----------------------------------------------------------------|
C-3-3-3-3-3-3-3-3-3-3-3-3-3-3-3-3-7-7-7-7-7-7-7-7-7~~-5~~-3~~-2~~-|
G-3-3-3-3-3-3-3-3-3-3-3-3-3-3-3-3-7-7-7-7-7-7-7-7-7~~-5~~-3~~-2~~-|
C-3-3-3-3-3-3-3-3-3-3-3-3-3-3-3-3-7-7-7-7-7-7-7-7-7~~-5~~-3~~-2~~-|

Guitare 2
D-13------15------13------15------12------13------12--10----------|
A-----13------13------13------13------12------12----------13--12--|
F-----------------------------------------------------------------|
C-----------------------------------------------------------------|
G-----------------------------------------------------------------|
C-----------------------------------------------------------------|

==================================================================
==================================================================

Guitare 1
D-----------------------------------------------------------------|
A-----------------------------------------------------------------|
F---------------------------------------------------5-7-9-7-5-----|
C-0~~-----------------------------0~~-------------------------8-7-|
G-0~~-----------------------------0~~-----------------------------|
C-0~~-----------------------------0~~-----------------------------|

Guitare 2
D-------------------------------------------------------------------|
A-------------------------------------------------------------------|
F-------------------------------------------------------------------|
C---------------------------------------------------7-8-10-8-7------|
G-------8p0-7p0-5p0-8-7-5---------------8p0-7p0-5p0------------10-8-|
C-0~~-0-------------------8-7-5-3-0~~-0-----------------------------|
pm    .                               .

==================================================================

Guitare 1
D-----------------------------------------------------------------|
A-----------------------------------------------------------------|
F-----------------------------------------------------------------|
C-0~~-----------------------------8~~-8-8-8-8-8-8-8---------------|
G-0~~-----------------------------8~~-8-8-8-8-8-8-8-7h8-5h7---5---|
C-0~~-----------------------------8~~-8-8-8-8-8-8-8---------8---7-|

Guitare 2
D-----------------------------------------------------------------|
A-----------------------------------------------------------------|
F-----------------------------------------------------------------|
C---------------------------------8~~-8-8-8-8-8-8-8---------------|
G-------8p0-7p0-5p0-8-7-5---------8~~-8-8-8-8-8-8-8-7h8-5h7---5---|
C-0~~-0-------------------8-7-5-3-8~~-8-8-8-8-8-8-8---------8---7-|

==================================================================

Guitare 1 & 2
D-----------------|
A-----------------|
F-----------------|
C-----------------|
G-----------------|
C-8-5-7-3-5-2-3-2-|

==================================================================
==================================================================

Guitare 1 & 2
D-----------------------------------------------------------------|
A-----------------------------------------------------------------|
F-----------------------------------------------------------------|
C-----------------------------------------------------------------|
G-----------------------------------------------------------------|
C-0-0-0-----0-0-0-----0-0-0---0-0-0-------------------------------|
pm. . .     . . .     . . .   . . .

 

Liens commerciaux

Archives

Lien commerciaux

Copyright © 2017 Guitare pour Débutant

En poursuivant votre navigation sur ce site, vous acceptez l'utilisation de cookies ou autres traceurs pour vous proposer des publicités ciblées, adaptées à vos centres d'intérêts, améliorer le fonctionnement du site et réaliser des statistiques de visites. Pour en savoir plus et paramétrer les cookies, cliquez ici. Plus d'info

Les paramètres des cookies sur ce site sont définis sur « accepter les cookies » pour vous offrir la meilleure expérience de navigation possible. Si vous continuez à utiliser ce site sans changer vos paramètres de cookies ou si vous cliquez sur "Accepter" ci-dessous, vous consentez à cela.

Fermer