Blink 182 – Good Times

Share Button


 

 

Toutes les tablatures sont ici  http://guitarepourdebutant.fr/tablatures-faciles/

 

Blink 182 – Good Times

 

|---------------------------------|
|---------------------------------|
|-3-3-----5-5-------------3-3-----|
|-3-3-----5-5-----3-3-----3-3-----|
|-1-1-----3-3-----3-3-----1-1-----|
|-----------------1-1-------------|

|---------------------------------|
|---------------------------------|
|-3-3-3-3-5-5-5-5---------3-3-3-3-|
|-3-3-3-3-5-5-5-5-3-3-3-3-3-3-3-3-|
|-1-1-1-1-3-3-3-3-3-3-3-3-1-1-1-1-|
|-----------------1-1-1-1---------|

|-------------------------5-------|
|----------------------------5----|
|-8-8-8-8-7-7-7-7-5-5-5-5---------|
|-8-8-8-8-7-7-7-7-5-5-5-5---------|
|-6-6-6-6-5-5-5-5-3-3-5-5---------|
|---------------------------------|

|---------------------------------|
|---------------------------------|
|-8-8-8-8-5-5-5-5-8-8-8-8-5-5-5-5-|
|-8-8-8-8-5-5-5-5-8-8-8-8-5-5-5-5-|
|-6-6-6-6-3-3-3-3-6-6-6-6-3-3-3-3-|
|---------------------------------|

|---------------------------------|
|---------------------------------|
|-8-8-8-8-5-5-5-5-8-8-8-8-5-5-5-5-|
|-8-8-8-8-5-5-5-5-8-8-8-8-5-5-5-5-|
|-6-6-6-6-3-3-3-3-6-6-6-6-3-3-3-3-|
|---------------------------------|

|---------------------------------|
|---------------------------------|
|-8-8-8-8-----------------8-8-8-8-|
|-8-8-8-8-8-8-8-8-6-6-6-8-8-8-8-8-|
|-6-6-6-6-8-8-8-8-6-6-6-8-6-6-6-6-|
|---------6-6-6-6-4-4-4-6---------|

|---------------------------------|
|---------------------------------|
|-3-3-3-3-3-3-3-3-5-5-5-5-5-5-5-5-|
|-3-3-3-3-3-3-3-3-5-5-5-5-5-5-5-5-|
|-1-1-1-1-1-1-1-1-3-3-3-3-3-3-3-3-|
|---------------------------------|

|---------------------------------|
|---------------------------------|
|-----------------3-3-3-3-3-3-3-3-|
|-3-3-3-3-3-3-3-3-3-3-3-3-3-3-3-3-|
|-3-3-3-3-3-3-3-3-1-1-1-1-1-1-1-1-|
|-1-1-1-1-1-1-1-1-----------------|

|-------------------------5-------|
|----------------------------5----|
|-8-8-8-8-7-7-7-7-5-5-5-5---------|
|-8-8-8-8-7-7-7-7-5-5-5-5---------|
|-6-6-6-6-5-5-5-5-3-3-5-5---------|
|---------------------------------|

|---------------------------------|
|---------------------------------|
|-8-8-8-8-5-5-5-5-8-8-8-8-5-5-5-5-|
|-8-8-8-8-5-5-5-5-8-8-8-8-5-5-5-5-|
|-6-6-6-6-3-3-3-3-6-6-6-6-3-3-3-3-|
|---------------------------------|

|---------------------------------|
|---------------------------------|
|-8-8-8-8-5-5-5-5-8-8-8-8-5-5-5-5-|
|-8-8-8-8-5-5-5-5-8-8-8-8-5-5-5-5-|
|-6-6-6-6-3-3-3-3-6-6-6-6-3-3-3-3-|
|---------------------------------|

|---------------------------------|
|---------------------------------|
|-8-8-8-8-----------------8-8-8-8-|
|-8-8-8-8-8-8-8-8-6-6-6-8-8-8-8-8-|
|-6-6-6-6-8-8-8-8-6-6-6-8-6-6-6-6-|
|---------6-6-6-6-4-4-4-6---------|

Soyez le premier à commenter

Poster un Commentaire

Votre adresse de messagerie ne sera pas publiée.




Time limit is exhausted. Please reload CAPTCHA.