Chuck Berry : Johnny B. Goode

Share Button

 

 

Imprimer cette tablature Imprimer cette tablature

Toutes les tablatures sont ici  http://guitarepourdebutant.fr/tablatures-faciles/

 

Tablature Chuck Berry :   Johnny B. Goode

   h = hammer-on
   / = slide 
   b = bend

   INTRO:
   ------

   E | -----------5/6-6-6-5/6-6-6-5/6-6-6--------------
   B | -------6-8-5/6-6-6-5/6-6-6-5/6-6-6-9-8-6--------
   G | ---6h7-----------------------------------6h7----
   D | ---------------------------------------------8--
   A | ------------------------------------------------
   E | ------------------------------------------------

   E | ---------------------------------------
   B | -----------------------6-8-6-----------
   G | ----------------7--6h7-7-7-7-6h7-------
   D | --8-8-8-8-8-8-8-8----------------8-5---
   A | --8-8-8-8-8-8-8-8----------------------
   E | ---------------------------------------

   E | --------------------(6)-----------------------------------------
   B | -------6------6------6------6-------6-----------6------6------6-
   G | --8b10---8b10---8b10---8b10---8b10---------8b10---8b10---8b10---
   D | ----------------------------------------------------------------
   A | ----------------------------------------------------------------
   E | ----------------------------------------------------------------

   E | --------------(6)----------6-------8-6----------------6-------
   B | -------6-------6---------6---9-8-6-----9-8-6---------6--9-8-7-
   G | --8b10---8b10-------8b10---------------------8-6h7--7---------
   D | --------------------------------------------------------------
   A | --------------------------------------------------------------
   E | --------------------------------------------------------------

   E | -------------------------- | 
   B | -------6------6----------- | 
   G | --8b10---8b10---8-6h7----- | 
   D | ----------------------8--- | 
   A | -------------------------- | 
   E | -------------------------- |

 

   E | -----------------------------------------------------------
   B | ----------9--9--9--9-11---------------------9--9--9--9-11--
   G | ---------10-10-10-10-10--------------------10-10-10-10-10--
   D | -----------------------------------------------------------
   A | -----------------------------------------------------------
   E | -----------------------------------------------------------

   E | --------------------------------------------------------------------
   B | --------------------9--9--9--9-11--------------------9--9--9--9-11--
   G | -------------------10-10-10-10-10-------------------10-10-10-10-10--
   D | --------------------------------------------------------------------
   A | --------------------------------------------------------------------
   E | --------------------------------------------------------------------

   E | ------------------------------------------------------------ | 
   B | ---------------------9--9--9--9-11---8---------------------- | 
   G | --------------------10-10-10-10-10---8---------------------- | 
   D | ------------------------------------------------------------ | 
   A | ------------------------------------------------------------ | 
   E | ------------------------------------------------------------ |

Soyez le premier à commenter

Poster un Commentaire

Votre adresse de messagerie ne sera pas publiée.




Time limit is exhausted. Please reload CAPTCHA.