Guitare pour Débutant

Vous débutez la guitare ou vous souhaitez progresser ?

COLDPLAY : The Scientist

Share Button

Toutes les tablatures sont ici  http://guitarepourdebutant.fr/tablatures-faciles/

 

COLDPLAY :  The Scientist

E||--5----5----5----5----|--6----6----6----6----|----------------------|
B||--6----6----6----6----|--6----6----6----6----|--1----1----1----1----|
G||--7----7----7----7----|--7----7----7----7----|--2----2----2----2----|
D||--7----7----7----7----|--8----8----8----8----|--3----3----3----3----|
A||--5----5----5----5----|--8----8----8----8----|--3----3----3----3----|
E||----------------------|--6----6----6----6----|--1----1----1----1----|

|----------------------|--5----5----5----5----|--6----6----6----6----|
|--1----1----1----1----|--6----6----6----6----|--6----6----6----6----|
|--0----0----0----0----|--7----7----7----7----|--7----7----7----7----|
|--3----3----3----3----|--7----7----7----7----|--8----8----8----8----|
|--3----3----3----3----|--5----5----5----5----|--8----8----8----8----|
|--1----1----1----1----|----------------------|--6----6----6----6----|

|----------------------|----------------------|--5----5----5----5----|
|--1----1----1----1----|--1----1----1----1----|--6----6----6----6----|
|--2----2----2----2----|--0----0----0----0----|--7----7----7----7----|
|--3----3----3----3----|--3----3----3----3----|--7----7----7----7----|
|--3----3----3----3----|--3----3----3----3----|--5----5----5----5----|
|--1----1----1----1----|--1----1----1----1----|----------------------|

|--6----6----6----6----|----------------------|----------------------|
|--6----6----6----6----|--1----1----1----1----|--1----1----1----1----|
|--7----7----7----7----|--2----2----2----2----|--0----0----0----0----|
|--8----8----8----8----|--3----3----3----3----|--3----3----3----3----|
|--8----8----8----8----|--3----3----3----3----|--3----3----3----3----|
|--6----6----6----6----|--1----1----1----1----|--1----1----1----1----|

|--5----5----5----5----|--6----6----6----6----|----------------------|
|--6----6----6----6----|--6----6----6----6----|--1----1----1----1----|
|--7----7----7----7----|--7----7----7----7----|--2----2----2----2----|
|--7----7----7----7----|--8----8----8----8----|--3----3----3----3----|
|--5----5----5----5----|--8----8----8----8----|--3----3----3----3----|
|----------------------|--6----6----6----6----|--1----1----1----1----|

|----------------------|--5----5----5----5----|--6----6----6----6----|
|--1----1----1----1----|--6----6----6----6----|--6----6----6----6----|
|--0----0----0----0----|--7----7----7----7----|--7----7----7----7----|
|--3----3----3----3----|--7----7----7----7----|--8----8----8----8----|
|--3----3----3----3----|--5----5----5----5----|--8----8----8----8----|
|--1----1----1----1----|----------------------|--6----6----6----6----|

|----------------------|----------------------|--5----5----5----5----|
|--1----1----1----1----|--1----1----1----1----|--6----6----6----6----|
|--2----2----2----2----|--0----0----0----0----|--7----7----7----7----|
|--3----3----3----3----|--3----3----3----3----|--7----7----7----7----|
|--3----3----3----3----|--3----3----3----3----|--5----5----5----5----|
|--1----1----1----1----|--1----1----1----1----|----------------------|

|--6----6----6----6----|----------------------|----------------------|
|--6----6----6----6----|--1----1----1----1----|--1----1----1----1----|
|--7----7----7----7----|--2----2----2----2----|--0----0----0----0----|
|--8----8----8----8----|--3----3----3----3----|--3----3----3----3----|
|--8----8----8----8----|--3----3----3----3----|--3----3----3----3----|
|--6----6----6----6----|--1----1----1----1----|--1----1----1----1----|

|--6----6----6----6----|--6----6----6----6----|----------------------|
|--6----6----6----6----|--6----6----6----6----|--1----1----1----1----|
|--7----7----7----7----|--7----7----7----7----|--2----2----2----2----|
|--8----8----8----8----|--8----8----8----8----|--3----3----3----3----|
|--8----8----8----8----|--8----8----8----8----|--3----3----3----3----|
|--6----6----6----6----|--6----6----6----6----|--1----1----1----1----|

|----------------------|--6----6----6----6----|--6----6----6----6----|
|--1----1----1----1----|--6----6----6----6----|--6----6----6----6----|
|--0----0----0----0----|--7----7----7----7----|--7----7----7----7----|
|--3----3----3----3----|--8----8----8----8----|--8----8----8----8----|
|--3----3----3----3----|--8----8----8----8----|--8----8----8----8----|
|--1----1----1----1----|--6----6----6----6----|--6----6----6----6----|

|----------------------|----------------------|--0----0----0----0----|
|--1----1----1----1----|--1----1----1----1----|--1----1----1----1----|
|--2----2----2----2----|--0----0----0----0----|--0----0----0----0----|
|--3----3----3----3----|--3----3----3----3----|--2----2----2----2----|
|--3----3----3----3----|--3----3----3----3----|--3----3----3----3----|
|--1----1----1----1----|--1----1----1----1----|----------------------|

|--0----0----0----0----|----------------------|--6----6----6----6----|
|--1----1----1----1----|--1----1----1----1----|--6----6----6----6----|
|--0----0----0----0----|--2----2----2----2----|--7----7----7----7----|
|--2----2----2----2----|--3----3----3----3----|--8----8----8----8----|
|--3----3----3----3----|--3----3----3----3----|--8----8----8----8----|
|----------------------|--1----1----1----1----|--6----6----6----6----|

|----------------------|----------------------|--5----5----5----5----|
|--1----1----1----1----|--1----1----1----1----|--6----6----6----6----|
|--2----2----2----2----|--2----2----2----2----|--7----7----7----7----|
|--3----3----3----3----|--3----3----3----3----|--7----7----7----7----|
|--3----3----3----3----|--3----3----3----3----|--5----5----5----5----|
|--1----1----1----1----|--1----1----1----1----|----------------------|

|--6----6----6----6----|----------------------|----------------------|
|--6----6----6----6----|--1----1----1----1----|--1----1----1----1----|
|--7----7----7----7----|--2----2----2----2----|--0----0----0----0----|
|--8----8----8----8----|--3----3----3----3----|--3----3----3----3----|
|--8----8----8----8----|--3----3----3----3----|--3----3----3----3----|
|--6----6----6----6----|--1----1----1----1----|--1----1----1----1----|

|--5----5----5----5----|--6----6----6----6----|----------------------|
|--6----6----6----6----|--6----6----6----6----|--1----1----1----1----|
|--7----7----7----7----|--7----7----7----7----|--2----2----2----2----|
|--7----7----7----7----|--8----8----8----8----|--3----3----3----3----|
|--5----5----5----5----|--8----8----8----8----|--3----3----3----3----|
|----------------------|--6----6----6----6----|--1----1----1----1----|

|----------------------|--5----5----5----5----|--6----6----6----6----|
|--1----1----1----1----|--6----6----6----6----|--6----6----6----6----|
|--0----0----0----0----|--7----7----7----7----|--7----7----7----7----|
|--3----3----3----3----|--7----7----7----7----|--8----8----8----8----|
|--3----3----3----3----|--5----5----5----5----|--8----8----8----8----|
|--1----1----1----1----|----------------------|--6----6----6----6----|

|----------------------|----------------------|--5----5----5----5----|
|--1----1----1----1----|--1----1----1----1----|--6----6----6----6----|
|--2----2----2----2----|--0----0----0----0----|--7----7----7----7----|
|--3----3----3----3----|--3----3----3----3----|--7----7----7----7----|
|--3----3----3----3----|--3----3----3----3----|--5----5----5----5----|
|--1----1----1----1----|--1----1----1----1----|----------------------|

|--6----6----6----6----|----------------------|----------------------|
|--6----6----6----6----|--1----1----1----1----|--1----1----1----1----|
|--7----7----7----7----|--2----2----2----2----|--0----0----0----0----|
|--8----8----8----8----|--3----3----3----3----|--3----3----3----3----|
|--8----8----8----8----|--3----3----3----3----|--3----3----3----3----|
|--6----6----6----6----|--1----1----1----1----|--1----1----1----1----|

|--5----5----5----5----|--6----6----6----6----|----------------------|
|--6----6----6----6----|--6----6----6----6----|--1----1----1----1----|
|--7----7----7----7----|--7----7----7----7----|--2----2----2----2----|
|--7----7----7----7----|--8----8----8----8----|--3----3----3----3----|
|--5----5----5----5----|--8----8----8----8----|--3----3----3----3----|
|----------------------|--6----6----6----6----|--1----1----1----1----|

|----------------------|--6----6----6----6----|--6----6----6----6----|
|--1----1----1----1----|--6----6----6----6----|--6----6----6----6----|
|--0----0----0----0----|--7----7----7----7----|--7----7----7----7----|
|--3----3----3----3----|--8----8----8----8----|--8----8----8----8----|
|--3----3----3----3----|--8----8----8----8----|--8----8----8----8----|
|--1----1----1----1----|--6----6----6----6----|--6----6----6----6----|

|----------------------|----------------------|--6----6----6----6----|
|--1----1----1----1----|--1----1----1----1----|--6----6----6----6----|
|--2----2----2----2----|--0----0----0----0----|--7----7----7----7----|
|--3----3----3----3----|--3----3----3----3----|--8----8----8----8----|
|--3----3----3----3----|--3----3----3----3----|--8----8----8----8----|
|--1----1----1----1----|--1----1----1----1----|--6----6----6----6----|

|--6----6----6----6----|----------------------|----------------------|
|--6----6----6----6----|--1----1----1----1----|--1----1----1----1----|
|--7----7----7----7----|--2----2----2----2----|--0----0----0----0----|
|--8----8----8----8----|--3----3----3----3----|--3----3----3----3----|
|--8----8----8----8----|--3----3----3----3----|--3----3----3----3----|
|--6----6----6----6----|--1----1----1----1----|--1----1----1----1----|

|--0----0----0----0----|--0----0----0----0----|----------------------|
|--1----1----1----1----|--1----1----1----1----|--1----1----1----1----|
|--0----0----0----0----|--0----0----0----0----|--2----2----2----2----|
|--2----2----2----2----|--2----2----2----2----|--3----3----3----3----|
|--3----3----3----3----|--3----3----3----3----|--3----3----3----3----|
|----------------------|----------------------|--1----1----1----1----|

|--6----6----6----6----|----------------------|----------------------|
|--6----6----6----6----|--1----1----1----1----|--1----1----1----1----|
|--7----7----7----7----|--2----2----2----2----|--2----2----2----2----|
|--8----8----8----8----|--3----3----3----3----|--3----3----3----3----|
|--8----8----8----8----|--3----3----3----3----|--3----3----3----3----|
|--6----6----6----6----|--1----1----1----1----|--1----1----1----1----|

|--5----5----5----5----|--6----6----6----6----|----------------------|
|--6----6----6----6----|--6----6----6----6----|--1----1----1----1----|
|--7----7----7----7----|--7----7----7----7----|--2----2----2----2----|
|--7----7----7----7----|--8----8----8----8----|--3----3----3----3----|
|--5----5----5----5----|--8----8----8----8----|--3----3----3----3----|
|----------------------|--6----6----6----6----|--1----1----1----1----|

|----------------------|--5----5----5----5----|--6----6----6----6----|
|--1----1----1----1----|--6----6----6----6----|--6----6----6----6----|
|--0----0----0----0----|--7----7----7----7----|--7----7----7----7----|
|--3----3----3----3----|--7----7----7----7----|--8----8----8----8----|
|--3----3----3----3----|--5----5----5----5----|--8----8----8----8----|
|--1----1----1----1----|----------------------|--6----6----6----6----|

|----------------------|----------------------|--5----5----5----5----|
|--1----1----1----1----|--1----1----1----1----|--6----6----6----6----|
|--2----2----2----2----|--0----0----0----0----|--7----7----7----7----|
|--3----3----3----3----|--3----3----3----3----|--7----7----7----7----|
|--3----3----3----3----|--3----3----3----3----|--5----5----5----5----|
|--1----1----1----1----|--1----1----1----1----|----------------------|

|--6----6----6----6----|----------------------|----------------------||
|--6----6----6----6----|--1----1----1----1----|--1----1----1----1----||
|--7----7----7----7----|--2----2----2----2----|--0----0----0----0----|| End !!
|--8----8----8----8----|--3----3----3----3----|--3----3----3----3----||
|--8----8----8----8----|--3----3----3----3----|--3----3----3----3----||
|--6----6----6----6----|--1----1----1----1----|--1----1----1----1----||

 

Liens commerciaux

Archives

Lien commerciaux

Copyright © 2017 Guitare pour Débutant

En poursuivant votre navigation sur ce site, vous acceptez l'utilisation de cookies ou autres traceurs pour vous proposer des publicités ciblées, adaptées à vos centres d'intérêts, améliorer le fonctionnement du site et réaliser des statistiques de visites. Pour en savoir plus et paramétrer les cookies, cliquez ici. Plus d'info

Les paramètres des cookies sur ce site sont définis sur « accepter les cookies » pour vous offrir la meilleure expérience de navigation possible. Si vous continuez à utiliser ce site sans changer vos paramètres de cookies ou si vous cliquez sur "Accepter" ci-dessous, vous consentez à cela.

Fermer