Nirvana – Smells Like Teen Spirit

Share Button

Nirvana – Smells Like Teen Spirit

Toutes les tablatures sont ici  http://guitarepourdebutant.fr/tablatures-faciles/

 

 

 

(riff1)
|-----------------------------------------------|
|-----------------------------------------------|
|---------------3-3-0----------------6-6-0------|
|-3-3-3-x-x-x-x-3-3-0--6-6-6-x-x-x-x-6-6-0------|
|-3-3-3-x-x-x-x-1-1-0--6-6-6-x-x-x-x-4-4-0------|
|-1-1-1-x-x-x-x-----0--4-4-4-x-x-x-x-----0------|  

(riff 2)
|-------1------------------------------|
|-----1--------------------------------|
|--------------------------------------|
|--------------------------------------|
|--------------------------------------|
|--------------------------------------|

|--------------------------------------|
|---6-----6------6------6------6-------|
|-5---5-5----5-5----5-5----5-5---------|
|--------------------------------------|
|--------------------------------------|
|--------------------------------------|

|-----------------------------------------------|
|-----------------------------------------------|
|---------------3-3-0----------------6-6-0------|
|-3-3-3-x-x-x-x-3-3-0--6-6-6-x-x-x-x-6-6-0------|
|-3-3-3-x-x-x-x-1-1-0--6-6-6-x-x-x-x-4-4-0------|
|-1-1-1-x-x-x-x-----0--4-4-4-x-x-x-x-----0------|

(riff 3)
|------------------------------------------------|
|------------------------------------------------|
|---------------3br~~------------3-3-------------|
|-3-3-3-x-x-4-4--------3-3-3-x-x-3-3--6-6-6------|
|-3-3-3-x-x-4-4--------3-3-3-x-x-1-1--6-6-6------|
|-1-1-1-x-x-2-2--------1-1-1-x-x------4-4-4------|

|----------------------------------------------|
|----------------------------------------------|
|-----8-/10------8*br6-5-6-5-------------------|
|-10---------6----------------8-6-8*br6-5------|
|----------------------------------------------|
|----------------------------------------------|

|----------------------------------------------|
|----------------------------------------------|
|-----8-/10------8*br6-5-6-5-------------------| 
|-10---------6----------------8-6-8*br6-5------|   
|----------------------------------------------|   
|----------------------------------------------|

|--------------------------------------|
|--------------------------------------|
|--------------------------------------|
|-6-5-6-5-6-5-6\5---6-5-6-5-6-5-6\5----|
|-----------------8-----------------8--|
|--------------------------------------|

|---------------------------------------------|
|---------------------------------------------|
|---------------------------------------------|
|-6-5-6-5-6-5-6\5---6-5-6-5-6-5-6\5-----------|
|-----------------8-----------------8~~~~~~~--|
|---------------------------------------------|

 

Soyez le premier à commenter

Poster un Commentaire

Votre adresse de messagerie ne sera pas publiée.




Time limit is exhausted. Please reload CAPTCHA.