Creed – Are you Ready

Share Button


 

 

Creed – Are you Ready
Toutes les tablatures sont ici  http://guitarepourdebutant.fr/tablatures-faciles/

 

D|---------------------------------------------------|
D|---------------------------------------------------|
A|---------------------------------------------------|
D|---------------------------------------------------|
A|-3--5--5--3--5-----5--3--5-----5(b)(r)(5)--5-----3-|
D|-0--0--0--0--0--0--0--0--0--0--0-----------0--0--0-|

D|----------------------------------------|
D|----------------------------------------|
A|----------------------0-----------------|
D|-------------------------0--------------|
A|-5--5--3--5--5--0-----------0--1/3\1--3-|
D|-0--0--0--0--0-----1------------------0-|

D|---------------------------------------------------|
D|---------------------------------------------------|
A|---------------------------------------------------|
D|---------------------------------------------------|
A|-3--5--5--3--5-----5--3--5-----5(b)(r)(5)--5-----3-|
D|-0--0--0--0--0--0--0--0--0--0--0-----------0--0--0-|

D|--------------------------------------|
D|--------------------------------------|
A|------------------------------1-------|
D|------------------------1-----3--1--5-|
A|-(3)--5--5--3--5--5--0--1-----1--1--3-|
D|-(0)--0--0--0--0--0-----1-----------0-|

D|------------------------------------------|
D|------------------------------------------|
A|------------------------------------------|
D|-7--7--5--7-----5-----7--7--------7--7--5-|
A|-5--5--3--5-----3-----5--5--5(b)--5--5--3-|
D|----0--0--0--0--0-----0--0--------0--0--0-|

				PM====|             
D|--------------------------------------------|
D|--------------------------------------------|
A|--------------------------------------------|
D|-(5)--7--7--5--7-----7--0--1--------3--3--5-|
A|-(3)--5--5--3--5-----5--0--1--1--1--1--3--3-|
D|-(0)--0--0--0--0-----0--0--1--1--1-----3--0-|

D|------------------------------------------|
D|------------------------------------------|
A|------------------------------------------|
D|-7--7--5--7-----5-----7--7--------7--7--5-|
A|-5--5--3--5-----3-----5--5--5(b)--5--5--3-|
D|----0--0--0--0--0-----0--0--------0--0--0-|

D|----------------------------------||
D|----------------------------------||
A|----------------------------------||
D|-(5)--7--7--5---------------------||
A|-(3)--5--5--3--5(b)/17/19/21/23--5\
D|-(0)--0--0--0-------17/19/21/23---||

D|----------------------------------||  
D|----------------------------------||
A|----------------------------------||
D|-(5)--7--7--5--------------------5||
A|-(3)--5--5--3--5(b)----(5)v------3||
D|-(0)--0--0--0--------------------0||

D|------------------------------------------|
D|------------------------------------------|
A|------------------------------------------|
D|-7--7--5--7-----5-----7--7--------7--7--5-|
A|-5--5--3--5-----3-----5--5--5(b)--5--5--3-|
D|----0--0--0--0--0-----0--0--------0--0--0-|

				PM====|
D|--------------------------------------------|
D|--------------------------------------------|
A|--------------------------------------------|
D|-(5)--7--7--5--7-----7--0--1--------3--3--5-|
A|-(3)--5--5--3--5-----5--0--1--1--1--1--3--3-|
D|-(0)--0--0--0--0-----0--0--1--1--1-----3--0-|

D|------------------------------------------|
D|------------------------------------------|
A|------------------------------------------|
D|-7--7--5--7-----5-----7--7--------7--7--5-|
A|-5--5--3--5-----3-----5--5--5(b)--5--5--3-|
D|----0--0--0--0--0-----0--0--------0--0--0-|

                                   PM=|
D|--------------------------------------------|
D|--------------------------------------------|
A|--------------------------------------------|
D|-----------------------x-x-1--1--------3--3-|
A|-----------------------x-x-1--1--1--1--1--3-|
D|-----------------------x-x-1--1--1--1-----3-|

				PM====|
D|--------------------------------------------|
D|--------------------------------------------|
A|--------------------------------------------|
D|-(5)--7--7--5--7-----7--0--1--------3--3--5-|
A|-(3)--5--5--3--5-----5--0--1--1--1--1--3--3-|
D|-(0)--0--0--0--0-----0--0--1--1--1-----3--0-|

D|------------------------------------------|
D|------------------------------------------|
A|------------------------------------------|
D|-7--7--5--7-----5-----7--7--------7--7--5-|
A|-5--5--3--5-----3-----5--5--5(b)--5--5--3-|
D|----0--0--0--0--0-----0--0--------0--0--0-|

				PM====|
D|--------------------------------------------|
D|--------------------------------------------|
A|--------------------------------------------|
D|-(5)--7--7--5--7-----7--0--1--------3--3--5-|
A|-(3)--5--5--3--5-----5--0--1--1--1--1--3--3-|
D|-(0)--0--0--0--0-----0--0--1--1--1-----3--0-|

D|------------------------------------------|
D|------------------------------------------|
A|------------------------------------------|
D|-7--7--5--7-----5-----7--7--------7--7--5-|
A|-5--5--3--5-----3-----5--5--5(b)--5--5--3-|
D|----0--0--0--0--0-----0--0--------0--0--0-|

D|--------------------------------------------------||
D|------------------------------0-------------------||
A|---------------------------------0----------------||
D|-(5)--7--7--5--7-----7--0-----------0--3--3--3--3-||
A|-(3)--5--5--3--5-----7--0--------------3--3--3--3-||
D|-(0)--0--0--0--0-----0--0--1-----------3--3--3--3-||

D|-0-----0--0--0-----0--0--0--0--0-----0--0--0--0-|
D|-3-----3--3--3-----3--3--3--3--3-----3--3--3--3-|
A|-0-----0--0--0-----0--0--0--0--0-----0--0--0--0-|
D|-0-----0--0--0-----0--0--0--0--0-----0--0--0--0-|
A|-3-----3--3--3-----3--3--3--3--3-----3--3--3--3-|
D|------------------------------------------------|

D|-0-----0--0--0-----0--0--0--0--0--0--0--0--5-|
D|-3-----3--3--3-----3--3--3--3--3--3--3--3--5-|
A|-0-----0--0--0-----0--0--0--0--0--0--0--0--5-|
D|-0-----0--0--0-----0--0--0--0--0--0--0--0--5-|
A|-2-----2--2--2-----2--2--2--2--3--3--3--3--5-|
D|-------------------------------------------5-|

D|-0-------------------------------|-------0--0--0--0--0-------0-----0--0-|
D|-0-------------------------------|-------0--0--0--0--0-------0-----0--0-|
A|-0-------0-------0--------0------|-0-----0--0--0--0--0-------0-----0--0-|
D|-0--5/7-------------------0------|-0--------0--0--0--0-------0-----0--0-|
A|-0----------7/9--------------9\7-|----0-----0--0--0--0--9\7--0-----0--0-|
D|-0------------------9/11---------|----0-----0--0--0--0-------0-----0--0-|

D|-0-----0--0--0-----0--0--0--0--0-----0--0--0--0-|
D|-3-----3--3--3-----3--3--3--3--3-----3--3--3--3-|
A|-0-----0--0--0-----0--0--0--0--0-----0--0--0--0-|
D|-0-----0--0--0-----0--0--0--0--0-----0--0--0--0-|
A|-3-----3--3--3-----3--3--3--3--3-----3--3--3--3-|
D|------------------------------------------------|

D|-0-----0--0--0-----0--0--0--0--0--0--0--0--5-|
D|-3-----3--3--3-----3--3--3--3--3--3--3--3--5-|
A|-0-----0--0--0-----0--0--0--0--0--0--0--0--5-|
D|-0-----0--0--0-----0--0--0--0--0--0--0--0--5-|
A|-2-----2--2--2-----2--2--2--2--3--3--3--3--5-|
D|-------------------------------------------5-|

D|-0-------------------------------|-------0--0--0--0--0-------0-----0--0-||
D|-0-------------------------------|-------0--0--0--0--0-------0-----0--0-||
A|-0-------0-------0--------0------|-0-----0--0--0--0--0-------0-----0--0-||
D|-0--5/7-------------------0------|-0--------0--0--0--0-------0-----0--0-||
A|-0----------7/9--------------9\7-|----0-----0--0--0--0--9\7--0-----0--0-||
D|-0------------------9/11---------|----0-----0--0--0--0-------0-----0--0-||

D|------------------------------------------|
D|------------------------------------------|
A|------------------------------------------|
D|-7--7--5--7-----5-----7--7--------7--7--5-|
A|-5--5--3--5-----3-----5--5--5(b)--5--5--3-|
D|----0--0--0--0--0-----0--0--------0--0--0-|

				PM====|
D|--------------------------------------------|
D|--------------------------------------------|
A|--------------------------------------------|
D|-(5)--7--7--5--7-----7--0--1--------3--3--5-|
A|-(3)--5--5--3--5-----5--0--1--1--1--1--3--3-|
D|-(0)--0--0--0--0-----0--0--1--1--1-----3--0-|

D|------------------------------------------|
D|------------------------------------------|
A|------------------------------------------|
D|-7--7--5--7-----5-----7--7--------7--7--5-|
A|-5--5--3--5-----3-----5--5--5(b)--5--5--3-|
D|----0--0--0--0--0-----0--0--------0--0--0-|

                                   PM=|
D|--------------------------------------------|
D|--------------------------------------------|
A|--------------------------------------------|
D|-----------------------x-x-1--1--------3--3-|
A|-----------------------x-x-1--1--1--1--1--3-|
D|-----------------------x-x-1--1--1--1-----3-|

				PM====|
D|--------------------------------------------|
D|--------------------------------------------|
A|--------------------------------------------|
D|-(5)--7--7--5--7-----7--0--1--------3--3--5-|
A|-(3)--5--5--3--5-----5--0--1--1--1--1--3--3-|
D|-(0)--0--0--0--0-----0--0--1--1--1-----3--0-|

D|------------------------------------------|
D|------------------------------------------|
A|------------------------------------------|
D|-7--7--5--7-----5-----7--7--------7--7--5-|
A|-5--5--3--5-----3-----5--5--5(b)--5--5--3-|
D|----0--0--0--0--0-----0--0--------0--0--0-|

				PM====|
D|--------------------------------------------|
D|--------------------------------------------|
A|--------------------------------------------|
D|-(5)--7--7--5--7-----7--0--1--------3--3--5-|
A|-(3)--5--5--3--5-----5--0--1--1--1--1--3--3-|
D|-(0)--0--0--0--0-----0--0--1--1--1-----3--0-|

D|------------------------------------------|
D|------------------------------------------|
A|------------------------------------------|
D|-7--7--5--7-----5-----7--7--------7--7--5-|
A|-5--5--3--5-----3-----5--5--5(b)--5--5--3-|
D|----0--0--0--0--0-----0--0--------0--0--0-|

D|--------------------------------------------------||
D|------------------------------0-------------------||
A|---------------------------------0----------------||
D|-(5)--7--7--5--7-----7--0-----------0--3--3--3--3-||
A|-(3)--5--5--3--5-----7--0--------------3--3--3--3-||
D|-(0)--0--0--0--0-----0--0--1-----------3--3--3--3-||

D|-0-----0--0--0-----0--0--0--0--0-----0--0--0--0-|
D|-3-----3--3--3-----3--3--3--3--3-----3--3--3--3-|
A|-0-----0--0--0-----0--0--0--0--0-----0--0--0--0-|
D|-0-----0--0--0-----0--0--0--0--0-----0--0--0--0-|
A|-3-----3--3--3-----3--3--3--3--3-----3--3--3--3-|
D|------------------------------------------------|

D|-0-----0--0--0-----0--0--0--0--0--0--0--0--5-|
D|-3-----3--3--3-----3--3--3--3--3--3--3--3--5-|
A|-0-----0--0--0-----0--0--0--0--0--0--0--0--5-|
D|-0-----0--0--0-----0--0--0--0--0--0--0--0--5-|
A|-2-----2--2--2-----2--2--2--2--3--3--3--3--5-|
D|-------------------------------------------5-|

D|-0-------------------------------|-------0--0--0--0--0-------0-----0--0-|
D|-0-------------------------------|-------0--0--0--0--0-------0-----0--0-|
A|-0-------0-------0--------0------|-0-----0--0--0--0--0-------0-----0--0-|
D|-0--5/7-------------------0------|-0--------0--0--0--0-------0-----0--0-|
A|-0----------7/9--------------9\7-|----0-----0--0--0--0--9\7--0-----0--0-|
D|-0------------------9/11---------|----0-----0--0--0--0-------0-----0--0-|

D|-0-----0--0--0-----0--0--0--0--0-----0--0--0--0-|
D|-3-----3--3--3-----3--3--3--3--3-----3--3--3--3-|
A|-0-----0--0--0-----0--0--0--0--0-----0--0--0--0-|
D|-0-----0--0--0-----0--0--0--0--0-----0--0--0--0-|
A|-3-----3--3--3-----3--3--3--3--3-----3--3--3--3-|
D|------------------------------------------------|

D|-0-----0--0--0-----0--0--0--0--0--0--0--0--5-|
D|-3-----3--3--3-----3--3--3--3--3--3--3--3--5-|
A|-0-----0--0--0-----0--0--0--0--0--0--0--0--5-|
D|-0-----0--0--0-----0--0--0--0--0--0--0--0--5-|
A|-2-----2--2--2-----2--2--2--2--3--3--3--3--5-|
D|-------------------------------------------5-|

D|-0-------------------------------|-------0--0--0--0--0-------0-----0--0-||
D|-0-------------------------------|-------0--0--0--0--0-------0-----0--0-||
A|-0-------0-------0--------0------|-0-----0--0--0--0--0-------0-----0--0-||
D|-0--5/7-------------------0------|-0--------0--0--0--0-------0-----0--0-||
A|-0----------7/9--------------9\7-|----0-----0--0--0--0--9\7--0-----0--0-||
D|-0------------------9/11---------|----0-----0--0--0--0-------0-----0--0-||

D|-0-------------------------------|------------------------------------------|
D|-0-----7--5--4-------------------|----------------------------------4-------|
A|-0--------------0--2--3--2--0--0-|----------0--0--------2-----2--3-----3--2-|
D|-0-------------------------------|-4--5--4--------4--5-----5----------------|
A|---------------------------------|------------------------------------------|
D|---------------------------------|------------------------------------------|

                                     w/ slide
D|---------------------------------|------------------------------------------|
D|---------------------------------|------------------------------------------|
A|---------------------------------|------------------------------------------|
D|---------------------------------|-5/--------7/---------9/---------10/------|
A|---------------------------------|-5/--------7/---------9/---------10/------|
D|---------------------------------|-5/--------7/---------9/---------10/------|

D|-0-----------------------------0----|----------0--------------------------------|
D|-0--------7--5--4--------------0----|----------0-----------------------4--------|
A|-0-----0-----------0--2--3--2--0--0-|----------0--0--------2-----2--3-----3--2--|
D|-0--0-------------------------------|-4--5--4--------4--5-----5-----------------|
A|-0--0-------------------------------|-------------------------------------------|
D|-0----------------------------------|-------------------------------------------|

D|------------------------------------|-------------------------------------------|
D|------------------------------------|-------------------------------------------|
A|------------------------------------|-------------------------------------------|
D|/12/-----14/----16/--------17/------|/19/-------21/-------22/---------24/-----x-|
A|/12/-----14/----16/--------17/------|/19/-------21/-------22/---------24/-----x-|
D|/12/-----14/----16/--------17/------|/19/-------21/-------22/---------24/-----x-|

D|-0-----------------------------0----|----------0--------------------------------|
D|-0--------7--5--4--------------0----|----------0-----------------------4--------|
A|-0-----0-----------0--2--3--2--0--0-|----------0--0--------2-----2--3-----3--2--|
D|-0--0-------------------------------|-4--5--4--------4--5-----5-----------------|
A|-0--0-------------------------------|-------------------------------------------|
D|-0----------------------------------|-------------------------------------------|

D|------------------------------------|-------------------------------------------|
D|------------------------------------|-------------------------------------------|
A|------------------------------------|-------------------------------------------|
D|/12/-----14/----16/--------17/------|/19/-------21/-------22/---------24/-----x-|
A|/12/-----14/----16/--------17/------|/19/-------21/-------22/---------24/-----x-|
D|/12/-----14/----16/--------17/------|/19/-------21/-------22/---------24/-----x-|

D|-0-----------------------------0----|----------0--------------------------------|
D|-0--------7--5--4--------------0----|----------0-----------------------4--------|
A|-0-----0-----------0--2--3--2--0--0-|----------0--0--------2-----2--3-----3--2--|
D|-0--0-------------------------------|-4--5--4--------4--5-----5-----------------|
A|-0--0-------------------------------|-------------------------------------------|
D|-0----------------------------------|-------------------------------------------|

D|------------------------------------|-------------------------------------------|
D|------------------------------------|-------------------------------------------|
A|------------------------------------|-------------------------------------------|
D|/12/-----14/----16/--------17/------|/19/-------21/-------22/---------24/-----x-|
A|/12/-----14/----16/--------17/------|/19/-------21/-------22/---------24/-----x-|
D|/12/-----14/----16/--------17/------|/19/-------21/-------22/---------24/-----x-|

D|------------------------------------|-------------------------------------------|
D|-(pb)3(r)(3)------------------------|-------------------------------------------|
A|------------------------------------|-------------------------------------------|
D|------------------------------------|-------------------------------------------|
A|------------------------------------|-------------------------------------------|
D|------------------------------------|-------------------------------------------|

D|-0-----------------------------0----|----------0--------------------------------|
D|-0--------7--5--4--------------0----|----------0-----------------------4--------|
A|-0-----0-----------0--2--3--2--0--0-|----------0--0--------2-----2--3-----3--2--|
D|-0--0-------------------------------|-4--5--4--------4--5-----5-----------------|
A|-0--0-------------------------------|-------------------------------------------|
D|-0----------------------------------|-------------------------------------------|

D|------------------------------------|-------------------------------------------|
D|------------------------------------|-------------------------------------------|
A|------------------------------------|-------------------------------------------|
D|/12/-----14/----16/--------17/------|/19/-------21/-------22/---------24/-----x-|
A|/12/-----14/----16/--------17/------|/19/-------21/-------22/---------24/-----x-|
D|/12/-----14/----16/--------17/------|/19/-------21/-------22/---------24/-----x-|

D|------------------------------------|----------------------------------------24-|
D|------------------------------------|-------------------------------------------|
A|------------------------------------|-------------------------------------------|
D|------------------------------------|-------------------------------------------|
A|------------------------------------|-------------------------------------------|
D|------------------------------------|-------------------------------------------|

D|-0-----------------------------0----|----------0--------------------------------|
D|-0--------7--5--4--------------0----|----------0-----------------------4--------|
A|-0-----0-----------0--2--3--2--0--0-|----------0--0--------2-----2--3-----3--2--|
D|-0--0-------------------------------|-4--5--4--------4--5-----5-----------------|
A|-0--0-------------------------------|-------------------------------------------|
D|-0----------------------------------|-------------------------------------------|

D|------------------------------------|-------------------------------------------|
D|------------------------------------|-------------------------------------------|
A|------------------------------------|-------------------------------------------|
D|/12/-----14/----16/--------17/------|/19/-------21/-------22/---------24/-----x-|
A|/12/-----14/----16/--------17/------|/19/-------21/-------22/---------24/-----x-|
D|/12/-----14/----16/--------17/------|/19/-------21/-------22/---------24/-----x-|


   w/ slide                                        
D|------------------------------------|-------------------------------------------|
D|-7/12-----10----10---9--------------|-5/9--------7------------------------------|
A|------------------------------------|-----------------6/8---8\6----6------------|
D|------------------------------------|-------------------------------------------|
A|------------------------------------|-------------------------------------------|
D|------------------------------------|-------------------------------------------|

   distortion
D|-0-----------------------------0----|----------0--------------------------------|
D|-0--------7--5--4--------------0----|----------0-----------------------4--------|
A|-0-----0-----------0--2--3--2--0--0-|----------0--0--------2-----2--3-----3--2--|
D|-0--0-------------------------------|-4--5--4--------4--5-----5-----------------|
A|-0--0-------------------------------|-------------------------------------------|
D|-0----------------------------------|-------------------------------------------|


D|------------------------------------|-------------------------------------------|
D|------------------------------------|-------------------------------------------|
A|------------------------------------|-------------------------------------------|
D|/12/-----14/----16/--------17/------|/19/-------21/-------22/---------24/-----x-|
A|/12/-----14/----16/--------17/------|/19/-------21/-------22/---------24/-----x-|
D|/12/-----14/----16/--------17/------|/19/-------21/-------22/---------24/-----x-|

D|-0-----------------------------0----|----------0--------------------------------|
D|-0--------7--5--4--------------0----|----------0-----------------------4--------|
A|-0-----0-----------0--2--3--2--0--0-|----------0--0--------2-----2--3-----3--2--|
D|-0--0-------------------------------|-4--5--4--------4--5-----5-----------------|
A|-0--0-------------------------------|-------------------------------------------|
D|-0----------------------------------|-------------------------------------------|

D|------------------------------------|-------------------------------------------|
D|------------------------------------|-------------------------------------------|
A|------------------------------------|-------------------------------------------|
D|/12/-----14/----16/--------17/------|/19/-------21/-------22/---------24/-----x-|
A|/12/-----14/----16/--------17/------|/19/-------21/-------22/---------24/-----x-|
D|/12/-----14/----16/--------17/------|/19/-------21/-------22/---------24/-----x-|

D|-0-----------------------------0----|----------0--------------------------------|
D|-0--------7--5--4--------------0----|----------0-----------------------4--------|
A|-0-----0-----------0--2--3--2--0--0-|----------0--0--------2-----2--3-----3--2--|
D|-0--0-------------------------------|-4--5--4--------4--5-----5-----------------|
A|-0--0-------------------------------|-------------------------------------------|
D|-0----------------------------------|-------------------------------------------|

D|------------------------------------|-------------------------------------------|
D|------------------------------------|-------------------------------------------|
A|------------------------------------|-------------------------------------------|
D|/12/-----14/----16/--------17/------|/19/-------21/-------22/---------24/-----x-|
A|/12/-----14/----16/--------17/------|/19/-------21/-------22/---------24/-----x-|
D|/12/-----14/----16/--------17/------|/19/-------21/-------22/---------24/-----x-|

D|-0-----------------------------0----|----------0--------------------------------|
D|-0--------7--5--4--------------0----|----------0-----------------------4--------|
A|-0-----0-----------0--2--3--2--0--0-|----------0--0--------2-----2--3-----3--2--|
D|-0--0-------------------------------|-4--5--4--------4--5-----5-----------------|
A|-0--0-------------------------------|-------------------------------------------|
D|-0----------------------------------|-------------------------------------------|

D|------------------------------------|-------------------------------------------|
D|------------------------------------|-------------------------------------------|
A|------------------------------------|-------------------------------------------|
D|/12/-----14/----16/--------17/------|/19/-------21/-------22/---------24/-----x-|
A|/12/-----14/----16/--------17/------|/19/-------21/-------22/---------24/-----x-|
D|/12/-----14/----16/--------17/------|/19/-------21/-------22/---------24/-----x-|

D|----------0--0--0--0-----------0--0--0---0--0-|
D|----------0--0--0--0-----------0--0--0---0--0-|
A|-3-----5--0--0--9--9-----7-----0--0--10--0--0-|
D|-x--0--x--0--0--x--x--0--x-----0--0--x---0--0-|
A|-3--0--5--0--0--9--9--0--7-----0--0--10--0--0-|
D|----0-----0--0--0--0--0--------0--0------0--0-|

D|----------0--0--0--0-----------0--0--0---0--0-|
D|----------0--0--0--0-----------0--0--0---0--0-|
A|-3-----5--0--0--9--9-----7-----0--0--10--0--0-|
D|-x--0--x--0--0--x--x--0--x-----0--0--x---0--0-|
A|-3--0--5--0--0--9--9--0--7-----0--0--10--0--0-|
D|----0-----0--0--0--0--0--------0--0------0--0-|

D|----------0--0--0--0-----------0--0--0---0--0-|
D|----------0--0--0--0-----------0--0--0---0--0-|
A|-3-----5--0--0--9--9-----7-----0--0--10--0--0-|
D|-x--0--x--0--0--x--x--0--x-----0--0--x---0--0-|
A|-3--0--5--0--0--9--9--0--7-----0--0--10--0--0-|
D|----0-----0--0--0--0--0--------0--0------0--0-|

D|----------0--0--0--0-----------0--0--0---0--0-||
D|----------0--0--0--0-----------0--0--0---0--0-||
A|-3-----5--0--0--9--9-----7-----0--0--10--0--0-||
D|-x--0--x--0--0--x--x--0--x-----0--0--x---0--0-||
A|-3--0--5--0--0--9--9--0--7-----0--0--10--0--0-||
D|----0-----0--0--0--0--0--------0--0------0--0-||

D|-0-----0--0--0-----0--0--0--0--0-----0--0--0--0-|
D|-3-----3--3--3-----3--3--3--3--3-----3--3--3--3-|
A|-0-----0--0--0-----0--0--0--0--0-----0--0--0--0-|
D|-0-----0--0--0-----0--0--0--0--0-----0--0--0--0-|
A|-3-----3--3--3-----3--3--3--3--3-----3--3--3--3-|
D|------------------------------------------------|

D|-0-----0--0--0-----0--0--0--0--0--0--0--0--5-|
D|-3-----3--3--3-----3--3--3--3--3--3--3--3--5-|
A|-0-----0--0--0-----0--0--0--0--0--0--0--0--5-|
D|-0-----0--0--0-----0--0--0--0--0--0--0--0--5-|
A|-2-----2--2--2-----2--2--2--2--3--3--3--3--5-|
D|-------------------------------------------5-|

D|-0-------------------------------|-------0--0--0--0--0-------0-----0--0-|
D|-0-------------------------------|-------0--0--0--0--0-------0-----0--0-|
A|-0-------0-------0--------0------|-0-----0--0--0--0--0-------0-----0--0-|
D|-0--5/7-------------------0------|-0--------0--0--0--0-------0-----0--0-|
A|-0----------7/9--------------9\7-|----0-----0--0--0--0--9\7--0-----0--0-|
D|-0------------------9/11---------|----0-----0--0--0--0-------0-----0--0-|

D|-0-----0--0--0-----0--0--0--0--0-----0--0--0--0-|
D|-3-----3--3--3-----3--3--3--3--3-----3--3--3--3-|
A|-0-----0--0--0-----0--0--0--0--0-----0--0--0--0-|
D|-0-----0--0--0-----0--0--0--0--0-----0--0--0--0-|
A|-3-----3--3--3-----3--3--3--3--3-----3--3--3--3-|
D|------------------------------------------------|

D|-0-----0--0--0-----0--0--0--0--0--0--0--0--5-|
D|-3-----3--3--3-----3--3--3--3--3--3--3--3--5-|
A|-0-----0--0--0-----0--0--0--0--0--0--0--0--5-|
D|-0-----0--0--0-----0--0--0--0--0--0--0--0--5-|
A|-2-----2--2--2-----2--2--2--2--3--3--3--3--5-|
D|-------------------------------------------5-|

D|-0-------------------------------|-------0--0--0--0--0-------0-----0--0-|
D|-0-------------------------------|-------0--0--0--0--0-------0-----0--0-|
A|-0-------0-------0--------0------|-0-----0--0--0--0--0-------0-----0--0-|
D|-0--5/7-------------------0------|-0--------0--0--0--0-------0-----0--0-|
A|-0----------7/9--------------9\7-|----0-----0--0--0--0--9\7--0-----0--0-|
D|-0------------------9/11---------|----0-----0--0--0--0-------0-----0--0-|

D|-0-----0--0--0-----0--0--0--0--0-----0--0--0--0-|
D|-3-----3--3--3-----3--3--3--3--3-----3--3--3--3-|
A|-0-----0--0--0-----0--0--0--0--0-----0--0--0--0-|
D|-0-----0--0--0-----0--0--0--0--0-----0--0--0--0-|
A|-3-----3--3--3-----3--3--3--3--3-----3--3--3--3-|
D|------------------------------------------------|

D|-0-----0--0--0-----0--0--0--0--0--0--0--0--5-|
D|-3-----3--3--3-----3--3--3--3--3--3--3--3--5-|
A|-0-----0--0--0-----0--0--0--0--0--0--0--0--5-|
D|-0-----0--0--0-----0--0--0--0--0--0--0--0--5-|
A|-2-----2--2--2-----2--2--2--2--3--3--3--3--5-|
D|-------------------------------------------5-|

D|-0-------------------------------|-------0--0--0--0--0-------0-----0--0-||
D|-0-------------------------------|-------0--0--0--0--0-------0-----0--0-||
A|-0-------0-------0--------0------|-0-----0--0--0--0--0-------0-----0--0-||
D|-0--5/7-------------------0------|-0--------0--0--0--0-------0-----0--0-||
A|-0----------7/9--------------9\7-|----0-----0--0--0--0--9\7--0-----0--0-||
D|-0------------------9/11---------|----0-----0--0--0--0-------0-----0--0-||

D|----------0--0--0--0-----------0--0--0---0--0-|
D|----------0--0--0--0-----------0--0--0---0--0-|
A|-3-----5--0--0--9--9-----7-----0--0--10--0--0-|
D|-x--0--x--0--0--x--x--0--x-----0--0--x---0--0-|
A|-3--0--5--0--0--9--9--0--7-----0--0--10--0--0-|
D|----0-----0--0--0--0--0--------0--0------0--0-|

D|----------0--0--0--0-----------0--0--0---0--0-|
D|----------0--0--0--0-----------0--0--0---0--0-|
A|-3-----5--0--0--9--9-----7-----0--0--10--0--0-|
D|-x--0--x--0--0--x--x--0--x-----0--0--x---0--0-|
A|-3--0--5--0--0--9--9--0--7-----0--0--10--0--0-|
D|----0-----0--0--0--0--0--------0--0------0--0-|

D|----------0--0--0--0-----------0--0--0---0--0-|
D|----------0--0--0--0-----------0--0--0---0--0-|
A|-3-----5--0--0--9--9-----7-----0--0--10--0--0-|
D|-x--0--x--0--0--x--x--0--x-----0--0--x---0--0-|
A|-3--0--5--0--0--9--9--0--7-----0--0--10--0--0-|
D|----0-----0--0--0--0--0--------0--0------0--0-|

   w/ wah-wah                       w/o wah-wah
D|----------0--------0--------0-----------|
D|----------0--------0--------0-----------|
A|-3-----5--0-----9--0-----7--0-----10----|
D|-x-----x--0-----x--0-----x--0-----x-----|
A|-3-----5--0-----9--0-----7--0-----10----|
D|----------0--------0--------0-----------|

 

Soyez le premier à commenter

Poster un Commentaire

Votre adresse de messagerie ne sera pas publiée.




Time limit is exhausted. Please reload CAPTCHA.