Django Reinhardt Minor Swing

Share Button
Tablature Minor Swing de Django Reinhardt
 Un morceau pas si facile , pour bien saisir la rythmique écoutez bien cette vidéo afin de vous caler dessus .
Patience et persévérance ;-)
Imprimer cette tablature Imprimer cette tablature

Toutes les tablatures sont ici  http://guitarepourdebutant.fr/tablatures-faciles/

 

E|------------|-----5--|------------|-----5--|------------|-----5---
B|-------5-6-5|---6----|-------5-6-5|---6----|-------5-6-5|---6-----
G|----5-------|7-------|----5-------|7-------|----5-------|7--------
D|/7----------|--------|/7----------|--------|/7----------|---------
A|------------|--------|------------|--------|------------|--------0
E|------------|--------|------------|--------|------------|---------

E|-----------|---8-8-8--7--|--5-5--5--5|-5-4-5-7-5-4-5-|-----------
B|-----------|---7-7-7--6--|--5-5--5--5|---------------|6----------
G|-----------|---8-8-8--7--|--5-5--5--5|---------------|---5--5-4-5
D|-----------|-------------|--7-7--7--7|---------------|-----------
A|3--2--0----|-------------|-----------|---------------|-----------
E|---------1-|0------------|-----------|---------------|-----------

E|-----10-8-7----|------------|----------------|----------|--/5-7-8-
B|------------10-|9-----------|----------------|----------|---------
G|(5)------------|---7--7-----|-----------10--9|----------|---------
D|---------------|--------10-9|(9)------9------|10-9------|---------
A|---------------|------------|-----/11--------|-----12---|---------
E|---------------|------------|----------------|----------|---------

E|/10-10---8-7-5|7--5-7-5----|----------|---------|------------
B|--------------|---------6-5|------5~--|---------|------------
G|--------------|------------|7-54-----|----4-5-7|(7)-7--5-4--
D|--------------|------------|----------|--7------|-----------7
A|--------------|------------|----------|---------|------------
E|--------------|------------|----------|---------|------------

E|---------|--------|----------------8-8-|---------|--------|--------
B|---------|--------|----------------7-7-|---------|--------|5-6-----
G|----4----|--------|----------------8-8-|-----5-4-|5-7-5-7-|----7-5-
D|6--------|7-------|--------------------|--/7-----|--------|--------
A|---------|--------|--------------------|---------|--------|--------
E|---------|--------|--------------------|---------|--------|--------

E|------------|------|---------|-------|---------|--------|----------
B|------------|------|---------|-------|---------|5-6-----|----------
G|7---5-7-4---|------|---------|-------|-4-5-4-5-|----7-5-|7---------
D|----------7-|6-----|-6-7-6-7-|7------|---------|--------|----------
A|------------|------|---------|-------|---------|--------|----------
E|------------|------|---------|-------|---------|--------|----------

E|---------|-------|---------------|--------|--------|-------|-------
B|5-6------|-------|6865---6-5---5-|--------|--------|-------|-------
G|----7-5-4|5------|-----7-----7---|5-7-5-4-|5-4-----|-------|-------
D|---------|-------|---------------|--------|----7-6-|7------|-------
A|---------|-------|---------------|--------|--------|-------|-------
E|---------|-------|---------------|--------|--------|-------|-------

E|---------|--------|------------|-------|-10-10-8-|8-10-10-8--
B|-10--10--|12--10--|-13-13-12-12|(12)---|---------|-----------
G|---------|--------|------------|-------|-7--7--5-|5-7--7--5--
D|-7---7---|9---7---|-10-10-9--9-|(9)----|---------|-----------
A|---------|--------|------------|-------|---------|-----------
E|---------|--------|------------|-------|---------|-----------

E|------------|---------|--------|---------|--------|-------
B|12-10-10-12-|12-10----|--------|---------|--------|-------
G|------------|---------|-10--9--|7-9-10-7-|--------|-------
D|9--7--7--9--|9--7-----|--------|---------|10-10-9-|10-9-7-
A|------------|---------|-8---7--|5-7-8--5-|--------|-------
E|------------|---------|--------|---------|8--8--7-|8--7-5-

E|--------|------------|----------|-------------|----------------
B|--------|------------|----------|-------------|----------------
G|-9-9-11-|11-13-13-13-|14--14--12|/14-14---14--|----------------
D|--------|------------|----------|-------------|----------------
A|-7-7-9--|9--11-11-11-|12--12--10|/12-12---12--|----------------
E|--------|------------|----------|-------------|----------------

E|--------|-----5--|--------|-----5--|--------|-----5--|--------
B|-----5--|---6----|-----5--|---6----|-----5--|---6----|--------
G|---5----|/7------|---5----|/7------|---5----|/7------|--------
D|/7------|--------|/7------|--------|/7------|--------|--------
A|--------|--------|--------|--------|--------|-------0|3-2-0---
E|--------|--------|--------|--------|--------|--------|------1-

E|----------|----------|-------5--|----------|-------5--|-----------
B|----------|------5---|----6-----|------5---|----6-----|-------5---
G|----------|---5------|/7--------|----5-----|/7--------|----5------
D|----------|/7--------|----------|/7--------|----------|/7---------
A|----------|----------|----------|----------|----------|-----------
E|0--2--3--4|----------|----------|----------|----------|-----------

E|------5--|-----------------|-----5---------------------------------
B|----6----|-------------8-9-|10---5---------------------------------
G|/7-------|-9-8-9-10-11-----|-----5---------------------------------
D|---------|-----------------|-----5---------------------------------
A|---------|-----------------|-----0---------------------------------
E|---------|-----------------|---------------------------------------

Soyez le premier à commenter

Poster un Commentaire

Votre adresse de messagerie ne sera pas publiée.




Time limit is exhausted. Please reload CAPTCHA.