Guitare pour Débutant

Vous débutez la guitare ou vous souhaitez progresser ?

Eagles : Don’t Want No Freaks

Share Button

Tablature Eagles : Don’t Want No Freaks

Imprimer cette tablature Imprimer cette tablature

Toutes les tablatures sont ici  http://guitarepourdebutant.fr/tablatures-faciles/


E||--------------------------|-------------------|--------------------------|
B||--------------------------|-------------------|--------------------------|
G||--------------------------|-------------------|--------------------------|
D||--------2--5--------0--3--|-------------------|--------2--5--------0--3--|
A||--3--3--------1--1--------|--3----------------|--3--3--------1--1--------|
E||--------------------------|-------------------|--------------------------|

-------------------|--------------------------|--------------------------|
-------------------|--------------------------|--------------------------|
-------------------|--------------------------|--------------------------|
-------------------|--------2--5--------0--3--|--------2--5--------0--3--|
--3----------------|--3--3--------1--1--------|--3--3--------1--1--------|
-------------------|--------------------------|--------------------------|

--------------------------|-------------------|--------------------|
--------------------------|-------------------|--------------------|
--------------------------|-------------------|--------------------|
--------2--5--------0--3--|-------------------|--5--------3--------|
--3--3--------1--1--------|--3----------------|--3--------1--------|
--------------------------|-------------------|--------------------|

------------------------|--------------------|------------------------|
------------------------|--------------------|------------------------|
------------------------|-----------5--------|------------------------|
--5--5--7--5--5---------|--5--------3--------|--5--5--7--5--5---------|
--3--3--3--3--3---------|--3-----------------|--3--3--3--3--3---------|
------------------------|--------------------|------------------------|

-------------------------|-------------------------|-------------------------|
-------------------------|-------------------------|-------------------------|
-------------------------|-------------------------|--5----7-----5--5--7-----|
--5----7-----5--5--7-----|--3----5-----3--3--5-----|--3----5-----3--3--5-----|
--3----5-----3--3--5-----|--1----3-----1--1--3-----|-------------------------|
-------------------------|-------------------------|-------------------------|

-----------------------|--------------------------|--------------------------|
-----------------------|--------------------------|--------------------------|
--7----(b9)----7-------|--------------------2--5--|--------------------2--5--|
--5----5-----5---------|--------2--5--3--3--------|--------2--5--3--3--------|
-----------------------|--3--3--------------------|--3--3--------------------|
-----------------------|--------------------------|--------------------------|

--------------------------|--------------------------|
--------------------------|--------------------------|
--------------------2--5--|--------------------2--5--|
--------2--5--3--3--------|--------2--5--3--3--------|
--3--3--------------------|--3--3--------------------|
--------------------------|--------------------------|

--------------------------|--------------------------|
--------------------------|--------------------------|
--------------------------|--------2--5--------2--5--|
--------2--5--------0--3--|--3--3--------3--3--------|
--3--3--------1--1--------|--------------------------|
--------------------------|--------------------------|

--------------------------|--------------------------|
--------------------------|--------------------------|
--------------------------|--------------------------|
--------2--5--------0--3--|-----5--5--5--5--5--5--5--|
--3--3--------1--1--------|-----5--5--5--5--5--5--5--|
--------------------------|-----3--3--3--3--3--3--3--|

--------------------------|-------------------|--------------------------|
--------------------------|-------------------|--------------------------|
--------------------------|-------------------|--------------------------|
--------2--5--------0--3--|-------------------|--------2--5--------0--3--|
--3--3--------1--1--------|--3----------------|--3--3--------1--1--------|
--------------------------|-------------------|--------------------------|

-------------------|--------------------------|--------------------------|
-------------------|--------------------------|--------------------------|
-------------------|--------------------------|--------------------------|
-------------------|--------2--5--------0--3--|--------2--5--------0--3--|
--3----------------|--3--3--------1--1--------|--3--3--------1--1--------|
-------------------|--------------------------|--------------------------|

--------------------------|-------------------|--------------------|
--------------------------|-------------------|--------------------|
--------------------------|-------------------|--------------------|
--------2--5--------0--3--|-------------------|--5--------3--------|
--3--3--------1--1--------|--3----------------|--3--------1--------|
--------------------------|-------------------|--------------------|

------------------------|--------------------|------------------------|
------------------------|--------------------|------------------------|
------------------------|-----------5--------|------------------------|
--5--5--7--5--5---------|--5--------3--------|--5--5--7--5--5---------|
--3--3--3--3--3---------|--3-----------------|--3--3--3--3--3---------|
------------------------|--------------------|------------------------|

-------------------------|-------------------------|-------------------------|
-------------------------|-------------------------|-------------------------|
-------------------------|-------------------------|--5----7-----5--5--7-----|
--5----7-----5--5--7-----|--3----5-----3--3--5-----|--3----5-----3--3--5-----|
--3----5-----3--3--5-----|--1----3-----1--1--3-----|-------------------------|
-------------------------|-------------------------|-------------------------|

-----------------------|--------------------------|--------------------------|
-----------------------|--------------------------|--------------------------|
--7----(b9)----7---------|------------------2--5--|--------------------2--5--|
--5----5-----5---------|--------2--5--3--3--------|--------2--5--3--3--------|
-----------------------|--3--3--------------------|--3--3--------------------|
-----------------------|--------------------------|--------------------------|

--------------------------|--------------------------|
--------------------------|--------------------------|
--------------------2--5--|--------------------2--5--|
--------2--5--3--3--------|--------2--5--3--3--------|
--3--3--------------------|--3--3--------------------|
--------------------------|--------------------------|

--------------------------|--------------------------|
--------------------------|--------------------------|
--------------------------|--------2--5--------2--5--|
--------2--5--------0--3--|--3--3--------3--3--------|
--3--3--------1--1--------|--------------------------|
--------------------------|--------------------------|

--------------------------|--------------------------|
--------------------------|--------------------------|
--------------------------|--------------------------|
--------2--5--------0--3--|-----5--5--5--5--5--5--5--|
--3--3--------1--1--------|-----5--5--5--5--5--5--5--|
--------------------------|-----3--3--3--3--3--3--3--|

--------------------------|--------------------------|
--------------------------|--------------------------|
--------------------2--5--|--------------------2--5--|
--------2--5--3--3--------|--------2--5--3--3--------|
--3--3--------------------|--3--3--------------------|
--------------------------|--------------------------|

--------------------------|--------------------------|
--------------------------|--------------------------|
--------------------2--5--|--------------------2--5--|
--------2--5--3--3--------|--------2--5--3--3--------|
--3--3--------------------|--3--3--------------------|
--------------------------|--------------------------|

--------------------------|--------------------------|
--------------------------|--------------------------|
--------------------------|--------2--5--------2--5--|
--------2--5--------0--3--|--3--3--------3--3--------|
--3--3--------1--1--------|--------------------------|
--------------------------|--------------------------|

--------------------------|--------------------------|
--------------------------|--------------------------|
--------------------------|-----------5-----------5--|
--------2--5--------0--3--|-----------5------5h-7----|
--3--3--------1--1--------|--3--6--7-----------------|
--------------------------|--------------------------|

--------------------------|--------------------------|
--------------------------|--------------------------|
--------------------------|-----------5-----------5--|
--------2--5--------0--3--|-----------5------5h-7----|
--3--3--------1--1--------|--3--6--7-----------------|
--------------------------|--------------------------|

--------------------------|--------------------------|
--------------------------|--------------------------|
--------------------------|-----------5-----------5--|
--------2--5--------0--3--|-----------5------5h-7----|
--3--3--------1--1--------|--3--6--7-----------------|
--------------------------|--------------------------|

--------------------------|--------------------------|
--------------------------|--------------------------|
--------------------------|-----------5-----------5--|
--------2--5--------0--3--|-----------5------5h-7----|
--3--3--------1--1--------|--3--6--7-----------------|
--------------------------|--------------------------|

--------------------------|--------------------------|
--------------------------|--------------------------|
--------------------------|-----------5-----------5--|
--------2--5--------0--3--|-----------5------5h-7----|
--3--3--------1--1--------|--3--6--7-----------------|
--------------------------|--------------------------|

--------------------------|--------------------------|
--------------------------|--------------------------|
--------------------------|-----------5-----------5--|
--------2--5--------0--3--|-----------5------5h-7----|
--3--3--------1--1--------|--3--6--7-----------------|
--------------------------|--------------------------|

--------------------------|--------------------------|
--------------------------|--------------------------|
--------------------------|-----------5-----------5--|
--------2--5--------0--3--|-----------5------5h-7----|
--3--3--------1--1--------|--3--6--7-----------------|
--------------------------|--------------------------|

--------------------------|--------------------------|
--------------------------|--------------------------|
--------------------------|-----------5-----------5--|
--------2--5--------0--3--|-----------5------5h-7----|
--3--3--------1--1--------|--3--6--7-----------------|
--------------------------|--------------------------|

--------------------------|--------------------------|
--------------------------|--------------------------|
--------------------------|-----------5-----------5--|
--------2--5--------0--3--|-----------5------5h-7----|
--3--3--------1--1--------|--3--6--7-----------------|
--------------------------|--------------------------|

--------------------------|--------------------------|-----|-----|-----|-----|
--------------------------|--------------------------|-----|-----|-----|-----|
--------------------------|-----------5-----------5--|-----|-----|-----|-----|
--------2--5--------0--3--|-----------5------5h-7----|-----|-----|-----|-----|
--3--3--------1--1--------|--3--6--7-----------------|-----|-----|-----|-----|
--------------------------|--------------------------|-----|-----|-----|-----|

Laisser un commentaire

Votre adresse de messagerie ne sera pas publiée.

Time limit is exhausted. Please reload CAPTCHA.

Liens commerciaux

Archives

Lien commerciaux

Copyright © 2017 Guitare pour Débutant

En poursuivant votre navigation sur ce site, vous acceptez l'utilisation de cookies ou autres traceurs pour vous proposer des publicités ciblées, adaptées à vos centres d'intérêts, améliorer le fonctionnement du site et réaliser des statistiques de visites. Pour en savoir plus et paramétrer les cookies, cliquez ici. Plus d'info

Les paramètres des cookies sur ce site sont définis sur « accepter les cookies » pour vous offrir la meilleure expérience de navigation possible. Si vous continuez à utiliser ce site sans changer vos paramètres de cookies ou si vous cliquez sur "Accepter" ci-dessous, vous consentez à cela.

Fermer