Gamma Ray – Rebellion in Dreamland

Share Button

Gamma Ray – Rebellion in Dreamland
Toutes les tablatures sont ici  http://guitarepourdebutant.fr/tablatures-faciles/

 

 

|--------------------------------------------------------------------------------|
|---------------------------0------------------------------------------0-(0)-----|
|------------------------------2h4p2---------------------------------------------|
|----5---4-5-4h5p4-2----2-5----------5-4-----5---4-5-4h5p4-2-----2--5--------5-4-|
|---------------------3---------------------------------------3------------------|
|-0----0----------------------------------0----0---------------------------------|
|
|
| 
|--------------------------------------------------------------------------------|
|--------------------------------------------------------------------------------|
|--------------------------------------------------------------------------------|
|--------------------------------------------------------------------------------|
|------------0h2p0-------------------0h2-----------------0h2---------------------|
|-0-------------------3-------------------0-------------------3------------------|

|-------------------------------------------------2------------------------------|
|---------------------------0-----------------3-------3--------0-(0)-----5-----7-|
|------------------------------2h4p2--------2---2---2---2----------------5-----7-|
|----5---4-5-4h5p4-2----2-5----------5-4--0------------------4-------------------|
|---------------------3------------------------------------2------2---3-----5----|
|-0----0-------------------------------------------------------------------------|
|
|
|
|--------------------------------------------------------------------------------|
|--------------------------------------------------------------------------------|
|--------------------------------------------------------------------------------|
|-----------------------------------------0------------------------------2-----4-|
|------------0h2p0--------------------------------0------------2------3-----5----|
|-0-------------------3------------------------------------2---------------------|

|--------------------------------------------------------------------------------|
|---------------------------0----------------------------------------0-(0)-------|
|------------------------------2h4p2---------------------------------------------|
|---5---4--5-4h5p4-2----2-5----------5-4-----2---4-5-4h5p4-2------5--------5-4---|
|---------------------3---------------------------------------3------------------|
|-0---0-----------------------------------0----0---------------------------------|
|
|

|--------------------------------------------------------------------------------|
|--------------------------------------------------------------------------------|
|--------------------------------------------------------------------------------|
|--------------------------------------------------------------------------------|
|------------0h2p0-------------------0h2------------------0-2-3------------3-2---|
|-0-------------------3-------------------0--------------------------------------|

|-------------------------------------------------2----------------------------------------|
|---------------------------0-----------------3-------3--------0-(0)-----5----7------0-(0)-|
|------------------------------2h4p2--------2---2---2---2----------------5----7------------|
|----5---4-5-4h5p4-2----2-5----------5-4--0------------------4---------------------4-------|
|---------------------3------------------------------------2------2---3----5-----2------2--|
|-0----0-----------------------------------------------------------------------------------|
|
|
|
|-------------------------------------------------2----------------------------------------|
|---------------------------------------------3-------3--------0-(0)-----------------0-(0)-|
|-------------------------------------------2---2---2---2----------------------------------|
|-----------------------------------------0------------------4---------------------4-------|
|----------------0h2---------------------------------------2------2-(2)----3--0--2------2--|
|-0-------------------3--------------------------------------------------------------------|

|---------|
|---------|
|---------|
|-5---7---|
|-3---5---|
|---------|
|         |
|         |
|         |
|---------|
|---------|
|---------|
|---5---7-|
|-3---5---|
|---------|

  Riff 1 (2x)
|------------------------------------------------------------------|
|*----------------------------------------------------------------*|
|------------------------------------------------------------------|
|---------9-7-9---4-5-7---4-5--7----------9-7-9---4-5-7---4-5--7---|
|*-2------7-5-7---2-3-5---2-3--5---2------7-5-7---2-3-5---2-3--5--*|
|--0--0-0--------------------------0--0-0--------------------------|

 riff 1 (4x)                              
|------------------------------------------------------|-------|
|*----------------------------------------------------*|-------|
|------------------------------------------------------|-------|
|--7/9-----9\7-----7/9--9\7--9------5-----7-7--5-4-----|-------|
|*-5/7-----7\5-----5/7--7\5--7------3--5--5-5------5--*|-2-(2)-|
|------0-0-----0-0--------------0-0----3---------------|-0-(0)-|

 riff 2 (2x)
|----------------------------------------------------------------------------------------|
|*--------------------------------------------------------------------------------------*|
|----------------------------------------------------------------------------------------|
|--9-(9)--7-(7)--9-(9)--7-(7)--5-(5)--7-(7)--9-(9)----------------7-7-9-9-7-7------------|
|*-7-(7)--5-(5)--7-(7)--5-(5)--3-(3)--5-(5)--7-(7)--7-7-9-9-10-10-------------10-10-9-9-*|
|----------------------------------------------------------------------------------------|

|------------------------------------------------------------|
|------------------------------------------------------------|
|------------------------------------------------------------|
|-2h4-----2h4-----7\4-------------2h4-----7\4----------------|
|-0h2-2-2-0h2-2-2-5\2-2-2-----2-3-0h2-2-2-5\2-2-2--7-7--5-5--|
|-------------------------3-5----------------------5-5--3-3--|

|-----------------------------------------------------------------|
|-----------------------------------------------------------------|
|-----------------------------------------------------------------|
|-2h4-----7\4-----2h4-------------2h4-----7\4---------7---------2-|
|-0h2-2-2-5\2-2-2-0h2-2-2-----2-3-0h2-2-2-5\2-2-2--5--5--7---5--0-|
|-------------------------3-5----------------------3-----5---3----|

 (2x)
|----------------------------------------------------------------|
|*--------------------------------------------------------------*|
|----------------------------------------------------------------|
|--4---7--9--7--6--2--4-------2---4---7--9--7--6--2--4-------2---|
|*-2---5--7--5--4--0--2---5---0---2---5--7--5--4--0--2---5---0--*|
|-------------------------3------------------------------3-------|

  Riff 2
|----------------------------|
|----------------------------|
|-----6--7--6----------------|
|-7---4--5--4--9--7--5---7---|
|-5------------7--5--3---5---|
|----------------------------|

|-----------------------------------------------|
|-----------------------------------------------|
|-----------------------------------------------|
|-7/9-----9\7-----7/9--9\7--9------5-----7------|
|-5/7-----7\5-----5/7--7\5--7------3--5--5--7-5-|
|-----0-0-----0-0--------------0-0----3-----5-3-|

|----------------------------------------------------------------------------|
|----------------------------------------------------------------------------|
|----------------------------------------------------------------------------|
|----------------------------------------------------------------------------|
|-2-----2-----2h3p0--2-----2-----2h3p0--2-----2-----2h3p0--2-----2-----2h3p0-|
|-0-0-0-0-0-0--------0-0-0-0-0-0--------0-0-0-0-0-0--------0-0-0-0-0-0-------|

|--------------|---------------------------------------------------------|
|--------------|---------------------------------------------------------|
|--------------|---------------------------------------------------------|
|-5-----7------|---------------------------------------5-----7--------8--|
|-3--5--5--7-5-|-2-----2-----2h3p0--2-----2-----2h3p0--3--5--5--7--9--6--|
|----3-----5-3-|-0-0-0-0-0-0--------0-0-0-0-0-0-----------3-----5--7-----|

  Riff 4 (2x)
|------------------|
|------------------|
|------------------|
|------------------|
|------------------|
|-0-00-0-0-000-000-|

|---------------------------------------------------------|
|---------------------------------------------------------|
|-7-------7-------7---------------------------------------|
|-5---7---5---7---5---7---9----------9-7------------------|
|-----5-------5-------5---7---7-9-10-----10-9-7-10-9-7----|
|------------------------------------------------------10-|
|                            
| 
| riff 4 (7x)
|-------------------|-----------------------------|
|*-----------------*|-----------------------------|
|-------------------|-----------------------------|
|-------------------|--------9-7------------------|
|*-----------------*|-7-9-10-----10-9-7-10-9-7----|
|-0-00-0-0-000-000--|--------------------------10-|

|---------------------------------------------------------------------|
|---------------------------------------------------------------------|
|-7-------7-----------------------------------------------------------|
|-5---7---5---7---5---7---9-------------9-7---------------------------|
|-----5-------5---3---5---7------7-9-10-----10-9-7-10-9-7----9-7------|
|---------------------------------------------------------10-----10-8-|
|                               
| 
| riff 5 (8x) 
|-------------------|--------------------------------------|
|*-----------------*|--------------------------------------|
|-------------------|--------------------------------------|
|-------------------|--------9-7---------------------------|
|*-----------------*|-7-9-10-----10-9-7-10-9-7----9-7------|
|-0-00-0-0-000-000--|--------------------------10-----10-8-|
  P.M.............]   P.M.................................]

  Solo riff 1 (3x)
|---------------------------------------------------|
|*-------------------------------------------------*|
|---------------------------------------------------|
|--7/9-----9------7/9-----9------5-----7-7--5-4-----|
|*-5/7-----7------5/7-----7------3--5--5-5------5--*|
|------0-0----0-0-----0-0----0-0----3---------------|

|-----------------------------------------------------|
|-----------------------------------------------------|
|-----------------------------------------------------|
|-7/9-----9------7/9-----9------5-----7--5-4----4-(4)-|
|-5/7-----7------5/7-----7------3--5--5------5--2-(2)-|
|-----0-0----0-0-----0-0----0-0----3------------------|

  Solo riff 2
|---------------------------------------------------------------|
|---------------------------------------------------------------|
|---------------------------------------------------------------|
|--------9-7-9---4-5-7---4-5--7----------9-7-9---4-5-7--4-5--4--|
|-2------7-5-7---2-3-5---2-3--5---2------7-5-7---2-3-5--2-------|
|-0--0-0--------------------------0--0-0------------------------|

|----------------------------------------------------------------|
|----------------------------------------------------------------|
|----------------------------------------------------------------|
|--------9-7-9---4-5-7---4-5--7----------9-7-9---4-5-7---4-5--7--|
|-2------7-5-7---2-3-5---2-3--5---2------7-5-7---2-3-5---2-3--5--|
|-0--0-0--------------------------0--0-0-------------------------|

|-------------------------------------------------------------------------|
|-------------------------------------------------------------------------|
|-------------------------------------------------------------------------|
|-------------------9-----------------------------------9-----------------|
|-----10---9h10-----------10-----9h10-----10---9h10-----------12--12-10-9-|
|-0-0----0------0-0---0-0----0-0------8-8----8------8-8---8-8-------------|

|--------------------------------------------------|
|--------------------------------------------------|
|--------------------------------------------------|
|-------------------9------------------------Gtr2--|
|-----10---9h10-----------10-----9h10--2-(2)-slide-|
|-0-0----0------0-0---0-0----0-0-------0-(0)-------|
  P.M    .      ...   ...    ...]

|-------------------------------------------------------------------------|
|-------------------------------------------------------------------------|
|-------------------------------------------------------------------------|
|-------------------9-----------------------------------9-----------------|
|-----10---9h10-----------10-----9h10-----10---9h10-----------12--12-10-9-|
|-0-0----0------0-0---0-0----0-0------8-8----8------8-8---8-8-------------|

|
|
|--------------------------------------------------|
|--------------------------------------------------|
|--------------------------------------------------|
|-------------------9------------------------------|
|-----10---9h10-----------10-----9h10--12-------9--|
|-0-0----0------0-0---0-0----0-0-------10--8h10-7--|

|-----------------------------------------------------------------|
|-----------------------------------------------------------------|
|-----------------------------------------------------------------|
|-----------------5-------------------------------5-----4--4------|
|-----7---5h7-----------7-----5h7-3-3-7-3-5h7-3-3---3-3------7-5--|
|-0-0---0-----0-0---0-0---0-0-------------------------------------|

|
|
|--------------------------------------------------|
|--------------------------------------------------|
|--------------------------------------------------|
|-----------------5----------------7--5h7-4~-------|
|-----7---5h7-----------7-----5h7------------------|
|-0-0---0-----0-0---0-0---0-0----------------------|
  P.M   .     ...   ...   ...]

 riff 6 (2x)
|------------------------------|
|*----------------------------*|
|------------------------------|
|--9-(9)--5-(5)--9-(9)--7------|
|*-7-(7)--3-(3)--7-(7)--5--9--*|
|--------------------------7---|

  Solo riff 4 (3x)
|------------------------------------------------------------------------------------|
|------------------------------------------------------------------------------------|
|------------------------------------------------------------------------------------|
|-----9------9------9------9------7------7------7------7-----------------------------|
|-----7------7------7------7--5-5-5--5-5-5--5-5-5--5-5-5------5------5------5------5-|
|-0-0----0-0----0-0----0-0--------------------------------3-3-3--3-3-3--3-3-3--3-3-3-|

|-----------------------|
|-----------------------|
|-----------------------|
|-----7------7--7-6-7-8-|
|-5-5-5--5-5-5--5-4-5-6-|
|-----------------------|

  Riff 5 (2x)

|----------------------------------------------------------------|
|*--------------------------------------------------------------*|
|----------------------------------------------------------------|
|------5-5h7-5-4h5p4-------5--7-------5-5h7-5-4h5p4-------5--7---|
|*-7~----------------5-7~--3--5---7~----------------5-7~--3--5--*|
|----------------------------------------------------------------|

   riff 7 (2x)
|-------------------------------------------------|
|*-----------------------------------------------*|
|-------------------------------------------------|
|--9---12-11---7------9---9---12-11---7------9----|
|*-7---10--9---5---9--7---7---10--9---5---9--7---*|
|------------------7----------------------7-------|

  Riff 6                                           
|--------------------------------------------------------------------------------|
|--------------------------------------------------------------------------------|
|--------------------------------------------------------------------------------|
|------------7---11--9--------------7-------------4-4h5-4-5-7--4-(4)-------------|
|-2---5--4---5----9--7---2---5--4---5---/9--7---7--------------2-(2)---2-(2)---2-|
|-0---3--2---------------0---3--2-------------7------------------------0-(0)---0-|