Green Day Poprock

Share Button

Tablature Green Day  Poprock

Toutes les tablatures sont ici  http://guitarepourdebutant.fr/tablatures-faciles/

E|------------------------------|
B|------------------------------|
G|-6-66-66-66-6-6-66-66-6-9(b9)-|
D|-7-77-77-77-7-7-77-77-7-9(b9)-|
A|-7-77-77-77-7-7-77-77-7-77----|
E|-5-55-55-55-5-5-55-55-5-------|

E|-------------------------------------------------------------------------------|
B|-------------------------------------------------------------------------------|
G|-6-66-66-66-66-7-77-77-77-77-6-66-66-66-66-(b9)9(b9)9(b9)9(b9)9(b9)7-77-77-77-7|
D|-7-77-77-77-77-7-77-77-77-77-7-77-77-77-77-(b9)9(b9)9(b9)9(b9)9(b9)7-77-77-77-7|
A|-7-77-77-77-77-5-55-55-55-55-7-77-77-77-77-7-77-77-77-77-5-55-55-55-55-7-77-7-7|
E|-5-55-55-55-55---------------5-55-55-55-55-----------------------------5-55-5-5|

E|-----------------------------------------------|
B|-----------------------------------------------|
G|-6-0--------000-7-6-9(b9)99(b9)777-7-6-9(b9)99(|
D|-7-2-44-444-222-7-7-9(b9)99(b9)777-7-7-9(b9)99(|
A|-7-2-44-444-222-5-7-77-777-555-5-7-77-777-5----|
E|-5-0-22-222-000---5--------------5-------------|

E|-------------------------------------------------------------------|
B|-------------------------------------------------------------------|
G|-7-77-77-77-7-6-66-66-66-6-(b9)9(b9)9(b9)9(b9)(b9)7-77-77-77-7-6-66|
D|-7-77-77-77-7-7-77-77-77-7-(b9)9(b9)9(b9)9(b9)(b9)7-77-77-77-7-7-77|
A|-5-55-55-55-5-7-77-77-77-7-7-77-77-77-7-5-55-55-55-5-7-77-77-77-77-|
E|--------------5-55-55-55-5---------------------------5-55-55-55-55-|

E|-------------------------------------------------------------------------------|
B|-------------------------------------------------------------------------------|
G|-------------------------------7-77-77-76--------------------------------------|
D|--7-----------------7-77-77-77------------7-77-77-77----------------7-77-77-77-|
A|----7-(b9)9(b9)9(b9)(b9)9s7----------------------------------(b9)9(b9)9(b9)9(b9|
E|-------------------------------------------------------------------------------|

E|-----------------------------------|
B|-------------------------10-(b9)---|
G|-777777777-66677-99(b9)(b9)(b9)----|
D|------------------------------7----|
A|-----------------------------------|
E|-----------------------------------|

Soyez le premier à commenter

Poster un Commentaire

Votre adresse de messagerie ne sera pas publiée.




Time limit is exhausted. Please reload CAPTCHA.