Guns N’ Roses Buick Makane

Share Button
Tablature Guns N' Roses Buick Makane
Imprimer cette tablature Imprimer cette tablature

Toutes les tablatures sont ici  http://guitarepourdebutant.fr/tablatures-faciles/

Disponible également la tablature :   Knocking on heavens door de Guns N Roses «  ici  »


 

e|------------|--12------------|--(12)----------|-----------------------|
B|------------|----------------|----------------|-------------------2^qb|
G|------------|----------------|----------------|-------------------2^--|
D|------------|----------------|----------------|-----------------------|
A|------------|----------------|----------------|-----------------------|
E|------------|----------------|----------------|-----------------------|
 |             
 |Gtr.I (Slash)
                                
e|------------|----------------|----------------|-----------------------|
B|------------|----------------|----------------|-----------------------|
G|------------|----------------|----------------|-----------------------|
D|------------|----------------|-----------5^qb-|------------5^qb-------|
A|------------|-5-7~~~-5-7~~~--|5-7--5-7-5---7~~|5-7--5-7--5----7-5-----|
E|-------7----|----------------|----------------|--------------------7-5|

  Guitare .II
e|----------------|----------------|--------------------|---------------|
B|--(2)------(2)/-|----------------|--------------------|---------------|
G|--(2)-----------|----------------|--------------------|---------------|
D|----------------|----------------|-------------5^qb---|---------------|
A|----------------|-5-7~~~-5-7~~~--|-5-7--5-7--5---7~~~-|--5-7~~~~~~~~~-|
E|----------------|----------------|--------------------|---------------|
 |
 |Gtr.I                                                 Riff A. (Gtr I&II)
e|----------------|----------------|-------------------||---------------|
B|----------------|----------------|-------------------||---------------|
G|----------------|----------------|-------------------||---------------|
D|----------------|----------------|-------------5^qb--||---------------|
A|-------------5--|-5-7~~~-5-7~~~--|-5-7--5-7--5---7~~~||--5-7~~--5-7~~-|
E|-(5)-(5)^--/7---|----------------|-------------------||---------------|
 

  Gtr.II
e|-----------------------|--------------------------|-------------------|
B|-----------------------|--------------------------|-------------------|
G|-----------------------|--------------------------|-------------------|
D|-----------------------|--------------------------|-------------------|
A|-----------------------|--------------------------|-----------------5-|
E|-----------------------|-----------------------5^-|-5~~~~~--(5)\-/7---|
 |
 |Gtr.I
e|-----------------------|--------------------------|-------------------|
B|-----------------------|--------------------------|-------------------|
G|-----------------------|--------------------------|-------------------|
D|--------------5^qb-----|--------------5^qb--------|-------------------|
A|--5-7--5--7-5---7~~~~~-|--5-7--5--7-5---7---5-----|-----------------5-|
E|-----------------------|-----------------------5^-|-5~~~~~--(5)\-/7---|

e|----------------------------------|------------------------||
B|----------------------------------|------------------------||
G|----------------------------------|------------------------||
D|--------------------5^qb----------|------------------------||
A|-------5-7---5-7--5------7--5-----|--5--------------5------||
E|-------------------------------7--|--3----------/7---------||

e|---------------------------|----------------------------------------|
B|---------------------------|----------------------------------------|
G|---------------------------|----------------------------------------|
D|--12h14--12----------------|----------------------------------------|
A|-------------12^*(12)~~~~~-|-12^(12)p11--12p11--10------------------|
E|---------------------------|-----------------------12~~~~~~~~-12-x--|

e|--------------------------------|-------------------------|
B|--12^---------------15----------|--14~~~~~~~~-------------|
G|--14^---------------14-14-------|-------------------------|
D|----------------------------14--|-------------------------|
A|--------------------------------|-------------------------|
E|--------------------------------|---------------------x\--|

e|------------------|------------------------------------||---------------|
B|------------------|----------------8^qb----------------||---------------|
G|------------------|-7--9--7--9--7------9~~~-7----------||---------------|
D|------------------|----------------------------9--5^qb-||---------------|
A|-5--7~~~--5--7~~~-|------------------------------------||--7~~~~~~~~~~~-|
E|------------------|------------------------------------||---------------|
e|--------------------|------------------------|------------------------|
B|--------------------|------------------------|------------------------|
G|--------------------|------------------------|------------------------|
D|--------------------|------------------------|------------------------|
A|--------------------|------------------------|-------------------5----|
E|--------------------|------------------5^--x-|--5~~~~~~~~~~~~/7-------|
e|---------|---------|------------------------|-------------------------|
B|---------|---------|--8----8p7---------(7)\-|--2^b---2------2------2--|
G|---------|---------|--9----9p7---------(7)\-|--2^----2------2------2--|
D|---------|---------|------------------------|-------------------------|
A|---------|---------|------------------------|-------------------------|
E|---------|---------|------------------------|-------------------------|
e|-------------------------------|------------------|-------------------|
B|---------------------------7^b-|-(7)~~~~~~~~~~~~~~|~~~~~~~~~~~~~~~----|
G|--2^--------------2--1--0--7^--|-(7)~~~~~~~~~~~~~~|~~~~~~~~~~~~~~~----|
D|-------------------------------|------------------|-------------------|
A|-------------------------------|------------------|-------------------|
E|-------------------------------|------------------|-------------------|
e|---------------|----------------------|-------------------------------|
B|-*(7)----------|----------------------|-------------------------------|
G|---------------|----------------------|--------------------12^qb------|
D|---------------|--12-14~~~~~12-14~~~~-|-12-14---12-14---12----14~~~~~-|
A|---------------|----------------------|-------------------------------|
E|------------x\-|----------------------|-------------------------------|

e|------------------------------|----------------------------------||
B|------------------------------|----------------------------------||
G|------------------------------|-------------------12^qb----------||
D|---12-14~~~~~~~-12-14~~~~~~~--|--12-14--12-14--12-----14~~~~~~~--||
A|------------------------------|----------------------------------||
E|------------------------------|----------------------------------||
e|----------------------------------------------------------|
B|----------------------------------------------------------|
G|----------------12--(12)^qb-x-------------12--(12)^qb-x---|
D|--12--14-14-14--------------x--12-14---14-------------x---|
A|----------------------------------------------------------|
E|----------------------------------------------------------|

e|----------------------------------------------------------------------|
B|----------------------------------------------------------------------|
G|--x-------x-14p12--12h14--12--14--14^b--12-------14--12^b-------------|
D|--x-12-14-x--------------------------------14-14--------14--12h14-----|
A|----------------------------------------------------------------------|
E|----------------------------------------------------------------------|

e|----------------------------------------------------------------------|
B|-----------------12--(12)^qb---------------------12--(12)^qb---12-----|
G|-----------------12--(12)^qb---------------------12--(12)^qb----------|
D|-12--14--14--14--------------14--12--14--14--14-----------------------|
A|----------------------------------------------------------------------|
E|----------------------------------------------------------------------|

e|----------12----------------------**^^^^^||^^^^^^^^^^^^^^^^^----------|
B|-------12------------------------15^-----||----(15)-------------------|
G|--14^*-------14-*-12----14-12------------||---------------------------|
D|---------------------14-------14---------||---------------------------|
A|-----------------------------------------||---------------------------|
E|-----------------------------------------||---------------------------|

e|-------------------------------------------|
B|-------------------------------------------|
G|-------------------------------------------|
D|------5^qb----------------5^qb-------------|
A|---7------7--5-----7----------7--5------5--|
E|----------------7-------------------7------|

e|--------------------|--------------------|------------------------15--|
B|--(15)--------------|--------------------|--15^~~~~~~~~~~~~~~~(0)-----|
G|--------------------|--------------------|----------------------------|
D|--------------------|--------------------|----------------------------|
A|--------------------|--------------------|----------------------------|
E|--------------------|--------------------|----------------------------|

e|-(15)-----------------------|-----------------|-----------------------|
B|-------15----15^~~~~~~~-----|-----------------|-----------------------|
G|-------------14^~~~~~~~--14-|-14~~~~~~~~~14^--|--14----13-------------|
D|----------------------------|-----------------|------------14~~~~~~~~-|
A|----------------------------|-----------------|-----------------------|
E|----------------------------|-----------------|-----------------------|
e|-----------------------------------------|----------------------------|
B|--15^--15^b(15)15^-(15)~~~~~~15-(15)p12--|-*17^----17~~~~~~-15--------|
G|-----------------------------------------|----------------------16----|
D|-----------------------------------------|----------------------------|
A|-----------------------------------------|----------------------------|
E|-----------------------------------------|----------------------------|

e|--17^----17-17~~~17~~~(17)^--|--17---16~~~~~~~~~~~~~~~~~~~~~~~~-------|
B|-----------------------------|----------17---------17---17---17p15----|
G|-----------------------------|-----------------------------------16---|
D|-----------------------------|----------------------------------------|
A|-----------------------------|----------------------------------------|
E|-----------------------------|----------------------------------------|

e|-------15-15-----------------------|----------------------------------|
B|-17-15------17-15-17-17-15-15p12---|-12-------------------------------|
G|-------------------------------15^-|--14^b--12--14---12^qb------------|
D|-----------------------------------|----------14--(14)--14-12-14--12--|
A|-----------------------------------|--------------------------------14|
E|-----------------------------------|----------------------------------|

e|------------------------------------------------------|
B|------------------------------------------------------|
G|------------------------------------------------------|
D|----------------------------------------------12------|
A|------14-13-12h14-12------12^----12--10-12/14------14-|
E|------------------------------------------------------|

Soyez le premier à commenter

Poster un Commentaire

Votre adresse de messagerie ne sera pas publiée.




Time limit is exhausted. Please reload CAPTCHA.