Iron Maiden Hallowed Be Thy Name

Share Button
Imprimer cette tablature Imprimer cette tablature

Toutes les tablatures sont ici  http://guitarepourdebutant.fr/tablatures-faciles/



Tablature Iron Maiden  Hallowed Be Thy Name 

INTRO:
|--------------------------------|--------------------------------|
|--12---10--8---7/8---7---5---7--|--12---10--8---7/8---7---5---4--|
|--------------------------------|--------------------------------|
|--------------------------------|--------------------------------|
|--10---9---7---5h7---5---3---5--|--10---9---7---5h7---5---3---2--|
|--------------------------------|--------------------------------| x14

RIFF 1:
|---------------------------------|-------------------------------|
|---------------------------------|-------------------------------|
|--14b16--14--12--11h12-11--9--11-|-14b16--14--12--11h12-11--9--8-|
|---------------------------------|-------------------------------|
|---------------------------------|-------------------------------|
|---------------------------------|-------------------------------| x4

RHYTHM 1:
e|--------------------------------------------|
B|--------------------------------------------|
G|--------------------------------------------|
D|---------9----------9----------5----------5-|
A|-7-7-7-7-7--7-7-7-7-7--3-3-3-3-3--3-3-3-3-3-|
E|--------------------------------------------|

e|-----------------------------------------------|
B|-----------------------------------------------|
G|-----------------------------------------------|
D|---------7----------7----------9--5p4----5p4---|
A|-5-5-5-5-5--5-5-5-5-5--7-7-7-7-7------7------5-|
E|-----------------------------------------------|

RIFF 2:
|----------------------------------|------------------------------|
|----------------------------------|------------------------------|
|--------------------4-------------|------------------4-----------|
|-----4h5p4-5-7p5p4-----5p4-5p4----|------4---4h5p4-7---5p4-5p4---|
|--7----------------------------7~-|----7---7-------------------7-|
|----------------------------------|------------------------------| x4

|-----------------------------------------------------------------|
|-----------------------------------------------------------------|
|-----------------------------------------------------------------|
|--9------------------------5------------------7------------------|
|--7---------------------5--3---------------7--5------------------|
|------------------------3------------------5---------------------|

|------------------------------|------------------|
|------------------------------|------------------|
|------------------------------|------------------|
|-----9--4--5---------5-4------|------------------|
|--9--7--2--3--2-3-2------7-5--|-(Back to Start)--|
|--7---------------------------|------------------|                      x2

|-----------------------------------------------------|-----------|
|-----------------------------------------------------|-----------|
|-----------------------------------------------------|-----------|
|--9--------5--------7--------9--4--5--------5-4------|--9--------|
|--7--------3--------5--------7--2--3--2-3-2-----7-5--|--7-etc----|
|-----------------------------------------------------|-----------|      x2

RIFF 3:
|-------------------------------------------------|
|-------------------------------------------------|
|-------------4---(4)----------4-----------4------|
|---------4-5--------5-4---4-5---5-4---4-5---5-4--|
|--7---(7)---------------7-----------7------------|
|-------------------------------------------------|  x2
   C
|-------------------------------------------------|
|-------------------------------------------------|
|-------------4---(4)----------4-----------4------|
|---------4-5--------5-4---4-5---5-4---4-5---5-4--|
|--3---(3)---------------3-----------3------------|
|-------------------------------------------------|  x2

|------------------------------------------------|
|------------------------------------------------|
|-----------7---------------7-------------7------|
|--5----7-9------9-7-5--7-9----9-7-5--7-9---9-7--|
|------------------------------------------------|
|------------------------------------------------|   x2

|-----------------------------------------------|
|-----------------------------------------------|
|-----------7/9------------7-------------7------|
|--5----7-9-----9-7-5--7-9----9-7-5--7-9---9-7--|
|-----------------------------------------------|
|-----------------------------------------------|    x2

|------------------------------------------------------|
|-----12-----------12-----------12-----------12--------|
|--9-----11-12--9-----11-12--9-----11-12--9-----11-12--|
|------------------------------------------------------|
|------------------------------------------------------|
|------------------------------------------------------| x4

RHYTHM:
|-------------------------------------------|
|-------------------------------------------|
|-----9----------------5-------------9------|
|--9--9-------------5--5----------9--9------|
|--9--7-------------5--3----------9--7-etc--|
|--7----------------3-------------7---------|

|--------------------------------------------|
|--------------------------------------------|
|-----------------4--------------------------|
|-----4--5--4--5-----5--4--5--4--------5--7--|
|--7-----------------------------7--5--3--5--|
|--------------------------------------------| x4

SOLO :8 fois
|---------------------------------------------------|
|---------------------------------------------------|
|---------------------------------------------------|
|--9--------------------------------5p4--0----------|
|--7----------------------------------------3p2-----|
|--0---------------------------------------------3--|

|---------------------------------------------------|
|---------------------------------------------------|
|---------------------------------------------------|
|--7--------------------------------5p4--0----------|
|--5----------------------------------------3p2-----|
|------------------------------------------------3--|

|--------------------------------------------------------------|
|--------------------------------------------------------------|
|--------------------------------------------------------------|
|--9---------------------------------5-------------5-----------|
|--7------------------------------7-----7--5----7-----7--5--7--|
|--0-----------------------------------------------------------| x3

|--------------------------------------------------------------|
|--------------------------------------------------------------|
|------------------------------------7~------------5~----------|
|--9------------------------------7-----7--5----7-----7--5--7--|
|--7-----------------------------------------------------------|
|--0-----------------------------------------------------------|

Soyez le premier à commenter

Poster un Commentaire

Votre adresse de messagerie ne sera pas publiée.




Time limit is exhausted. Please reload CAPTCHA.