Jimi Hendrix Villanova Junction

Share Button

 

Jimi Hendrix  Villanova Junction

Toutes les tablatures sont ici  http://guitarepourdebutant.fr/tablatures-faciles/

 

e|----------------------------------------------------------------------|
B|----------------------------------------------------------------------|
G|--------5--7--9--7/9--5---------------------7-9-----------------------|
D|--7--7---------------------7--X--7-7--X--7-7-------7-9----------------|
A|--------3--5--7--5/7--3-------------------------------7--7H9P7--5-----|
E|--5--5---------------------5--X--5-5--X--5-5-----------------------7--|

e|--------------------------------------------------------------------|
B|--------------------------------------------------------------------|
G|---------------------5--7--9--11--9--7/9/7--X--7-7--X--7------------|
D|--9--9-9--9-9--9--9-------------------------------------------------|
A|---------------------3--5--7--9---7--5/7/5--X--5-5--X--5------------|
E|--7--7-7--7-7--7--7-------------------------------------------------|

e|--5H8P5-----------8H10P8-8----------------------------------------------|
B|-------------8-10----------10-8-10--X--10-10--X--10-10--X--10-----------|
G|--------8-10------------------------------------------------------------|
D|------------------------------------------------------------------------|
A|------------------------------------------------------------------------|
E|------------------------------------------------------------------------|

e|----------------------------------------------------------------------------------|
B|--8H10--10P8-8P6--8-6-5-6--6-6-6--6-5-4-3--3-3-3--3-------------------------------|
G|----------------------------------------------------7-5-2--6H8-6---7-9------------|
D|-----------------------------------------------------------------8-----7-9--------|
A|--------------------------------------------------------------------------7-9-----|
E|------------------------------------------------------------------------------5-7-|

e|------------------------------------------------------------------------|
B|------------------------------------------------------------------------|
G|---------------------5--7--9--7/9-5/7--X--7-7--X--7--6H8-6--------------|
D|--7--7-7--7-7--7--7--------------------------------------------8P6H8----|
A|---------------------3--5--7--5/7-3/5--X--5-5--X--5---------------------|
E|--5--5-5--5-5--5--5-----------------------------------------------------|

e|------------------------------------------------------------------------|
B|------------------------------------------------------------------------|
G|----------------------------6H8-6---------------------------------------|
D|--5/7--5/7/7--X--2-2--------8-------------------------------------------|
A|------------------------------------------------------------------------|
E|--3/5--3/5/5--X--0-0----------------------------------------------------|

e|---------------------------------------------------------------------------|
B|---------------------------------------------------------------------------|
G|------3-5-6-5-4-5-4-5/6--6/8/6/6--6/8/10--9H10P9--7H8P8--5H6P5--2H3~~|
D|--3-5----------------------------------------------------------------------|
A|---------------------------------------------------------------------------|
E|---------------------------------------------------------------------------|

e|-----------------------------------------------------------------------------------|
B|---------------------------------------9-6--6H8-6----------------------------------|
G|-----------------------------------7-9------------9-7---9-7---9-7----9-------------|
D|-X-X-X-7-X-7-X-7-3/4-5-4-2-3---7-9-------------------9-7---9-7---9-7--7--7H9P7H9~~-|
A|-----------------------------------------------------------------------------------|
E|-X-X-X-5-X-5-X-5-------------------------------------------------------------------|

e|---9------------------------------------8/9-8-11-9-8-8h9p8h9p8h9p8-----|
B|----10-10--------------------------------------------------------------|
G|--9---9-------7-9--7H9P7H9P7H9P7H9P7--6--------------------------------|
D|---------7-9-----------------------------------------------------------|
A|-----------------------------------------------------------------------|
E|-----------------------------------------------------------------------|

e|-----------------------------------------------------------------------|
B|--9-7~~7-9-7-----------------------------------------------------------|
G|-------------9-7---------------7-9/11-11/13-13-7-9-5-5hp7--------------|
D|-----------------9-7-------7-9------------------------------9-7--------|
A|---------------------9-7-9---------------------------------------------|
E|-----------------------------------------------------------------------|

e|--7-7/8-8-8/10-10-10/12-12-12/14-7-7--7-10-8-7h8p7h8p7h8p7h8p7-------|
B|-----------------------------------------------------------------9-7---|
G|-----------------------------------------------------------------------|
D|-----------------------------------------------------------------------|
A|-----------------------------------------------------------------------|
E|-----------------------------------------------------------------------|

e|--------------------10/12-10-7-10-8-7-9-----7-9-7-10-7-9-7-9-7---------|
B|--7-9-9h10p9-9-7-8-------------------------7h9-------------------------|
G|-----------------------------------------------------------------------|
D|-----------------------------------------------------------------------|
A|-----------------------------------------------------------------------|
E|-----------------------------------------------------------------------|

e|---------------------7-9-10-9-7---10-9-7-------------------------------|
B|--9-7------------7h9---------------------------------------------------|
G|------9-7--------------------------------------------------------------|
D|----------9-7-9--------------------------------------------------------|
A|-----------------------------------------------------------------------|
E|-----------------------------------------------------------------------|

e|-----------------------------------------------------------------------|
B|-----------------------------------------------------------------------|
G|-------5--7--9--7/9-5/7/4---------------7-5-7-5-7----------------------|
D|--7-7--------------------------5--7-7-7-7-5----------------------------|
A|-------3--5--7--5/7-3/5/2----------------------------------------------|
E|--5-5------------------------------------------------------------------|

e|-----------------------------------------------------------------------|
B|-----------------------------------------------------------------------|
G|-9-9/11-11-9P7-7-5--5-6-4-5-3-4-2-3-1-2-0-0-0-0-0-0-0-0--5/0-----------|
D|-----------------------------------------------------------------------|
A|-----------------------------------------------------------------------|
E|-----------------------------------------------------------------------|

e|--8-7-7-7-7/8-8-8-8/10-10-10-10/12-12/14--14-14-14-12-9-7-9-7--------|
B|-----------------------------------------------------------------------|
G|-----------------------------------------------------------------------|
D|-----------------------------------------------------------------------|
A|-----------------------------------------------------------------------|
E|-----------------------------------------------------------------------|

e|--7-9-7-------9-9-9-7------------7-9/11\9-7----------------------------|
B|--------9-7-9---------9-7-9--7-9------------10-8---8-10-8--8-8--8------|
G|-------------------------------------------------7----------------9-7--|
D|-----------------------------------------------------------------------|
A|-----------------------------------------------------------------------|
E|-----------------------------------------------------------------------|

e|-----------------------------------9-----------------------------------|
B|-----------------------------------10----------------------------------|
G|--7-9-11-13-7H9-7-4--6H8P6---------9-----------------------------------|
D|---------------------------8P6H8---------------------------------------|
A|-----------------------------------------------------------------------|
E|-----------------------------------------------------------------------|