Karnivool – C.O.T.E.

Share Button

Karnivool – C.O.T.E.

Toutes les tablatures sont ici  http://guitarepourdebutant.fr/tablatures-faciles/


Intro x4   

C#|--555-5555--5555-5555-555-5-55-55---|
G#|--666-6666--6666-6666-666-6-66-66---|
E |--777-7777--7777-7777-777-7-77-77---|
B |--777-7777--7777-7777-777-7-77-77---|
F#|--555-5555--5555-5555-555-5-55-55---|
B |------------------------------------|

C#|------------------------------------|---------3-3-3-3--|
G#|--88-88-88-8888-8888-8888--6666-666-|---------3-3-3-3--|
E |--77-77-77-7777-7777-7777--7777-777-|---------3-3-3-3--|
B |--55-55-55-5555-5555-5555--5555-555-|-1-1-1-1-1-1-1-1--|
F#|--66-66-66-6666-6666-6666--6666-666-|-1-1-1-1-1-1-1-1--|
B |------------------------------------|-1-1-1-1-1-1-1-1--|

C#|--------------------------------------------------------|
G#|--------------------------------------------------------|
E |-------------15-14------------------10-7-----7----------|x2
B |-------12-13-------15-12-13-------8------7-8------------|
F#|-10-10----------------------6-6-6-----------------------|
B |--------------------------------------------------------|

C#|---------------------3h6p3------------------------------|
G#|-------------3h6p3-------------------------------3------|
E |-0-3-0-3-0-3------------------0---0---0---0h3h5----5----|
B |--------------------------------------------------------|
F#|----------------------------1---1---1-------------------|
B |--------------------------------------------------------|

C#|--------------------6-3----------------------6p3--------|
G#|------------------3------------------------------6------|
E |--0-3-0-3-0-3-3h5------------0---0---0--3h5-------------|
B |--------------------------------------------------------|
F#|---------------------------1---1---1--------------------|
B |--------------------------------------------------------|

C#|----3---3---3---3---3---3---5---5---3---3----|
G#|--3---3---3---3---3---3---3---3---3---3------|
E |---------------------------------------------|
B |---------------------------------------------|
F#|---------------------------------------------|
B |---------------------------------------------|

C#|-----------------------555--|
G#|-88-88-88-888-8888-88--666--|
E |-77-77-77-777-7777-77--777--|x4
B |-55-55-55-555-5555-55--777--|
F#|-66-66-66-666-6666-66--555--|
B |----------------------------|

C#|------------------------------555--|
G#|-1111-1111-11111111-11111111--666--|
E |-1212-1212-12121212-12121212--777--|
B |-x-x--x-x--x-x-x-x--x-x-x-x---777--|
F#|-1010-1010-10101010-10101010--555--|
B |-----------------------------------|

C#|-------------------------------------------|
G#|-------------------------------------------|
E |-------------------------------------------|
B |-------/7--------/5--------/8--------/3~---|
F#|--5---------5---------5---------5----------|
B |--5---------5---------5---------5----------|

C#|------------------------------555---|
G#|-1111-1111-11111111-11111111--666---|
E |-1212-1212-12121212-12121212--777---|
B |-x-x--x-x--x-x-x-x--x-x-x-x---777---|
F#|-1010-1010-10101010-10101010--555---|
B |------------------------------------|

C#|-------------------------------|
G#|-------------------------------|
E |-------------------------------|
B |------/7-------/8--------/3~---|
F#|--5--------5---------5---------|
B |--5--------5---------5---------|

C#|----3---3---3---3---3---3---5---5-----|
G#|--3---3---3---3---3---3---3---3-------|
E |--------------------------------------|
B |--------------------------------------|
F#|--------------------------------------|
B |--------------------------------------|

C#|-----------------------555---|
G#|-88-88-88-888-8888-88--666---|
E |-77-77-77-777-7777-77--777---|x4
B |-55-55-55-555-5555-55--777---|
F#|-66-66-66-666-6666-66--555---|
B |-----------------------------|

C#|----------------------------------------------------|
G#|-----------------------11p10p8-11p10p8----10--------|
E |-12------------12----------------------10-----------|
B |----7-8-10--------7-8-------------------------------|
F#|-----------10---------------------------------------|
B |----------------------------------------------------|

3:59
C#|---------------------------------------------------------|
G#|---------------------------------------------------------|
E |---------------------------------------------------------|
B |--8h1010101010--8h1010101010--8h1010101010-8h1010101010--|
F#|--8h1010101010--8h1010101010--8h1010101010-8h1010101010--|
B |--8h1010101010--8h1010101010--8h1010101010-8h1010101010--|
       . . . . .     . . . . .     . . . . .    . . . . .   |  x2
C#|---------------------------------------------------------|
G#|---------------------------------------------------------|
E |---------------------------------------------------------|
B |-1-1-3-0h1-1-1-3-0h1-1-1-3-0h1-1-1-3-0h1-----------------|
F#|-1-1-------1-1-------1-1-------1-1-----------------------|
B |-1-1-------1-1-------1-1-------1-1-----------------------|
    . .       . .       . .       . .

C#|-----------------------------------------------|
G#|-----------------------------------------------|
E |-----------------------------------------------|
B |--8/10-1010--8/10-1010--8/10-1010--8/10-1010---|
F#|--8/10-1010--8/10-1010--8/10-1010--8/10-1010---|
B |--8/10-1010--8/10-1010--8/10-1010--8/10-1010---|

C#|-------------------------------------------|
G#|-------------------------------------------|
E |-------------------------------------------|
B |-----/7---------/5--------/8--------/3~----|
F#|-1---------1----------1--------1-----------|
B |-1---------1----------1--------1-----------|

C#|-----------------------------------------------|
G#|-----------------------------------------------|
E |-----------------------------------------------|
B |--8/10-1010--8/10-1010--8/10-1010--8/10-1010---|
F#|--8/10-1010--8/10-1010--8/10-1010--8/10-1010---|
B |--8/10-1010--8/10-1010--8/10-1010--8/10-1010---|

C#|-------------------------------|
G#|-------------------------------|
E |-------------------------------|
B |-----/7--------/8--------/3~---|
F#|-1--------1----------1---------|
B |-1--------1----------1---------|

C#|-----------------------555--|
G#|-88-88-88-888-8888-88--666--|
E |-77-77-77-777-7777-77--777--|x4
B |-55-55-55-555-5555-55--777--|
F#|-66-66-66-666-6666-66--555--|
B |----------------------------|

 

Soyez le premier à commenter

Poster un Commentaire

Votre adresse de messagerie ne sera pas publiée.




Time limit is exhausted. Please reload CAPTCHA.