Led Zeppelin : Stairway to heaven

Share Button

Led Zeppelin : Stairway to heaven

Toutes les tablatures sont ici  http://guitarepourdebutant.fr/tablatures-faciles/  

Led Zeppelin : Stairway to heaven

Imprimer la tablature Imprimer cette tablature Imprimer cette tablature

E-------5-7-----7-|-8-----8-2-----2-|-0---------0-----|-----------------|
B-----5-----5-----|---5-------3-----|---1---1-----1---|-0-1-1-----------|
G---5---------5---|-----5-------2---|-----2---------2-|-0-2-2-----------|
D-7-------6-------|-5-------4-------|-3---------------|-----------------|
A-----------------|-----------------|-----------------|-2-0-0---0--/8-7-|
E-----------------|-----------------|-----------------|-----------------|

E---------7-----7-|-8-----8-2-----2-|-0---------0-----|-----------------|
B-------5---5-----|---5-------3-----|---1---1-----1---|-0-1-1-----------|
G-----5-------5---|-----5-------2---|-----2---------2-|-0-2-2-----------|
D---7-----6-------|-5-------4-------|-3---------------|-----------------|
A-0---------------|-----------------|-----------------|-2-0-0-------0-2-|
E-----------------|-----------------|-----------------|-----------------|

E-------0-2-----2-|-0-----0----------|---------3-----3-
B-----------3-----|---1-----0h1------|-1-----1---0-----
G-----0-------2---|-----2-------2----|---0---------0---
D---2-----0-------|-3----------------|-----2-----------
A-3---------------|---------0----0-2-|-3---------------
E-----------------|------------------|---------3-------

E---------2-----2-|-0-----0----------|---------------2-|-0-0-0-----------|
B-------1---3-----|---1-----0-1------|-------1-----3---|-1-1-1-----------|
G-----0-------2---|-----2-------2----|-----0-----2-----|-2-2-2-----------|
D---2-----0-------|-3----------------|---2-----0-------|-3-3-3-----------|
A-3---------------|---------0----0-2-|-3---------------|-----------------|
E-----------------|------------------|-----------------|-----------------|
E-------5-7-----7-|-8-----8-2-----2-|-0---------0-----|-----------------|
B-----5-----5-----|---5-------3-----|---1---1-----1---|-0-1-1-----------|
G---5---------5---|-----5-------2---|-----2---------2-|-0-2-2-----------|
D-7-------6-------|-5-------4-------|-3---------------|-----------------|
A-----------------|-----------------|-----------------|-2-0-0-----------|
E-----------------|-----------------|-----------------|-----------------|

E-------5-7-----7-|-8-----8-2-----2-|-0---------0-----|-----------------|
B-----5-----5-----|---5-------3-----|---1---1-----1---|-0-1-1-----------|
G---5---------5---|-----5-------2---|-----2---------2-|-0-2-2-----------|
D-7-------6-------|-5-------4-------|-3---------------|-----------------|
A-----------------|-----------------|-----------------|-2-0-0-------0-2-|
E-----------------|-----------------|-----------------|-----------------|

E---------2-----2-|-0-----0---------------|---------3-----3-|-3^2-2-2-------|
B-------1---3-----|---1----1--0-1---------|-1---1-1---0-----|-3---3-3-------|
G-----0-------2---|-----2---------2-------|---0-0-------0---|-2-----2-------|
D---2-----0-------|-3---------------------|-----2-----------|-0-----0-------|
A-3---------------|-----------0------0-2--|-3---------------|-----------0-2-|
E-----------------|-----------------------|---------3-------|---------------|

E-------0-2-----2-|-0-----------------|---------2-----2-|-0-0-0-----------|
B-----------3-----|---1--1--0 1-------|-1-----1---3-----|-1-1-1-----------|
G-----0-------2---|-----2-------2-----|---0---------2---|-2-2-2-----------|
D---2-----0-------|-3-----------------|-----2---0-------|-3-3-3-----------|
A-3---------------|---------------0-2-|-3---------------|-----------------|
E-----------------|-------------------|-----------------|-----------------|

E-------5-7-----7-|-8-----8-2-----2-|-0---0-----0-----|-----------------|
B-----5-----5-----|---5-------3-----|---1---1-----1---|-0-1-1-----------|
G---5---------5---|-----5-------2---|---------------2-|-0-2-2-----------|
D-7-------6-------|-5-------4-------|-3---------------|-----------------|
A-----------------|-----------------|-----------------|-2-0-0---0--/8-7-|
E-----------------|-----------------|-----------------|-----------------|

E--------5-7---7---|----8-------2------|----0-------0----|-----------------|
B-----------5-5-5--|---5-5-----3-3-----|---1--1----1-1---|-0-1-1-------3---|
G------5-----5---5-|--5---5---2---2--2-|--2----2--2---2--|-0-2-2-------0---|
D----7-----6-------|-5-----5-4-----4---|-3-------3-----3-|-------------0---|
A-0-0--------------|-------------------|-----------------|-2-0-0-------2---|
E------------------|-------------------|-----------------|-------------

1 Trackback / Pingback

  1. Led Zeppelin Celebration Day en dvd

Les commentaires sont fermés.