Lenny Kravitz : Believe

Share Button

Tablature Lenny Kravitz  Believe

Toutes les tablatures sont ici  http://guitarepourdebutant.fr/tablatures-faciles/
 

Imprimer cette tablature Imprimer cette tablature

 

Le Riff :

   A                      F
e--0---0---0---0---0-0-0-|---------------------|---
b--2---3---2---0---2-0-0-|--0----1---0h1p0-----|---
g--2---2---2---2---2-0-0-|--2---------------2--|---
d--------------------0-0-|--3------------------|---
a------------------------|---------------------|---
e------------------------|---------------------|---
______________________________________________________________________________________________________

e------------------------------------
b------------------------------------
g------------------------------------
d------------------------------------
a-----------2---3---2----------------
e--0----4----------------4------0----

e----------------------|----------------------|-----------------|---
b-----------------3----|------------3----5----|------------3----|---
g--2-------2-4-5-----4-|-----2-4-5----------2-|------2-4-5----4-|---
d----------------------|----------------------|---2-------------|---
a----------------------|----------------------|-----------------|---
e----------------------|----------------------|-----------------|---

e---------------------------------|------------------------------|--
b---------------------------------|------------------------------|--
g---2h4p2p0-----------14p12----12-|--14------14-16-17---17Br--16-|--
d----------------/14--------14----|-------14---------------------|--
a---------------------------------|------------------------------|--
e---------------------------------|------------------------------|--

e-------------------------------|------------------------|----------
b-------------------15--15Br----|----------------15------|----------
g--------14-16-17------------14-|-------14-16-17-----16--|----------
d-------------------------------|---14-------------------|----------
a-------------------------------|------------------------|----------
e-------------------------------|------------------------|----------

e----------------------
b----------------------
g--------14--12-14-12--
d----------------------
a----------------------
e----------------------


	

Soyez le premier à commenter

Poster un Commentaire

Votre adresse de messagerie ne sera pas publiée.




Time limit is exhausted. Please reload CAPTCHA.