Lynyrd Skynyrd Home Alabama

Share Button

Toutes les tablatures sont ici  http://guitarepourdebutant.fr/tablatures-faciles/

 Tablature Lynyrd Skynyrd Home Alabama

|-------------------------------|-------------------------------|
|--------3---------------3------|-------------------------------|
|----------2---------------0----|--------0--0----------------2/0|
|--0--0------0---------------0--|-------------------0-2/0-------|
|--------------3(0)3------------|--------------0/2--------2-----|
|-------------------------------|-3(0)3-------------------------|

|-------------------------------|-------------------------------|
|-------------------------------|-------------------------------|
|-------------------------------|-------------------------------|
|-------------------------------|-------------------------7-----|
|-------------------------------|--------------------------9\7/9|
|-------------------------------|-------------------------------|
 
|-------------------------------|-------------------------------|
|--------3---------------3------|-------------------------------|
|----------2---------------0----|--------0--0--2/0-0-4/0-----5fb|
|--0--0------0---------------0--|-------------------------0-----|
|--------------3(0)3------------|-------------------------------|
|-------------------------------|-3x3---------------------------|

|-------------------------------|-------------------------------|
|-------------------------------|-------------------------------|
|-7----------9-7----------------|(7)----------------------------|
|-------------------------------|-------------------------------|
|-------------------------------|-------------------------------|
|-------------------------------|-------------------------------|

|-------------------------------|-------------------------------|
|--------3--------------3----3--|-------3----3------------------|
|--------2--------------0----0--|-------0----0-------------2/0--|
|--0--0-------x--------------2--|-------0----0-----0-2/0--------|
|----------------3(0)3----------|--------------0/2-------2------|
|-------------------------------|3-x-3----3---------------------|
|-----0-------------------0-----|----3---------------3----------|
|----------3---------3-------3--|---------3----3/5--------5\3---|
|-------------------------------|-------------------------------|
|-------------------------------|-------------------------------|
|-------------------------------|-------------------------------|
|-------------------------------|-------------------------------|
|-------------------------------|-------------------------------|
|--------3--------------3----3--|-------3-----------------------|
|--------2--------------0----0--|-------0------------0----------|
|--0--0-------x--------------0--|-------0----------0------------|
|----------------3(0)3----------|--------------1/2--------------|
|-------------------------------|3-x-3--------------------------|
|-----0-------------------0-----|----3---------3----------3-----|
|----------3---------3-------3--|---------3----------3----------|
|-------------------------------|-------------------------------|
|-------------------------------|-------------------------------|
|-------------------------
||-------------------------------|------------------------------|
||--------3--3----------3---3----|-------3----------------------|
||*-------2--2----------0---0----|-------0----------0----0------|
||*-0--0--------------------0----|-------0--------0-------------|
||---------------3--3------------|------------0/2-----------0/2-|
||-------------------------------|-3--3-------------------------|

|--------------------------------|------------------------------|
|--------3--3----------3---3-----|-------3----------------------|
|--------2--2----------0---0-----|-------0-----------0----------|
|--0--0--------------------2-----|-------0-----------0----------|
|---------------3--3-------------|------------------------------|
|--------------------------------|-3--3-------3--3--------------|
|--------------------------------|------------------------------|
|--------3--3----------3---3-----|-------3----------------------|
|--------2--2----------0---0-----|-------0----------0----0------|
|--0--0--------------------0-----|-------0--------0-------------|
|---------------3--3-------------|------------0/2-----------0/2-|
|--------------------------------|-3--3-------------------------|
|--------------------------------|------------------------------|
|--------3--3----------3---3-----|-------3---3------------------|
|--------2--2----------0---0-----|-------0---0-------0---0-0----|
|--0--0--------------------2-----|-------0---0-------0---0-0----|
|---------------3--3-------------|------------------------------|
|--------------------------------|-3--3--------3--3-------------|