Metallica Nothing Else Matters

Share Button

Toutes les tablatures sont ici  http://guitarepourdebutant.fr/tablatures-faciles/
Nothing Else Matters : Metallica

Imprimer cette tablature Imprimer cette tablature
|-----------0--------|-----------0--------|-----------0--------|
|--------0-----0-----|--------0-----0-----|--------0-----0-----|
|-----0-----------0--|-----0-----------0--|-----0-----------0--|
|--------------------|--------------------|--------------------|
|--------------------|--------------------|--------------------|
|--0-----------------|--0-----------------|--0-----------------|

|-----------0-----7--|--7--------7p0-------|--------7--8--7h87\5-|--7--5/2------|
|--------0-----0-----|-----0-----0---0-----|--0-----0--0---------|--0--------5--|
|-----0--------------|--------0---------0--|-----0---------------|--------------|
|--------------------|---------------------|---------------------|--------------| 
|--------------------|---------------------|---------------------|--------------|
|--0-----------------|--0------------------|--0------------------|--------------|

|-----------2p0-------|-----------0--0--0--|--0----------3p0-----0--|
|--5-----5------5-----|--------5-----5--5--|--5------5-------5---5--|
|-----5------------5--|-----5--------5--5--|--5----5---5-------5-5--|
|---------------------|--------------------|------------------------|
|--0------------------|--0-----------0--2--|--3--3---------------3--|
|---------------------|--------------------|------------------------|

|--0----------0h5p0---------|-------------12--------|-----------0--------|
|--7------7---------7p0-0h5-|-----12--12------0-----|--------0-----0-----|
|--7----7---7---------------|-----12-------------0--|-----0-----------0--|
|---------------------------|-----------------------|--------------------|
|--5--5---------------------|-----------------------|--------------------|
|---------------------------|--0--------------------|--0-----------------|

|-----------0--------|-----------0--------|------------7------|
|--------0-----0-----|--------0-----0-----|------------8------|
|-----0-----------0--|-----0-----------0--|----------9--------|
|--------------------|--------------------|--------9----------|
|--------------------|--------------------|------7------------|
|--0-----------------|--0-----------------|--0----------------|

|--------------------|------------7------|--------------------|
|--------7--------5--|------------8------|--------7--------5--|
|--------7--------5--|----------9--------|--------7--------5--|
|-----7--------5-----|--------9----------|-----7--------5-----|
|--5--------3--------|------7------------|--5--------3--------|
|--------------------|--0----------------|--------------------|

|------------7------|--------------------|--------------------|
|------------8------|--------7--------5--|--------3--------4--|
|----------9--------|--------7--------5--|--------4--------2--|
|--------9----------|-----7--------5-----|-----5--------4-----|
|------7------------|--5--------3--------|-----------2--------|
|--0----------------|--------------------|--3-----------------|
|------------7------|----5--------3------|----3--------2------|
|----------8--------|------7--------5----|------3--------4----|
|--------9----------|--------7--------5--|--------4--------2--|
|-------------------|--------------------|--------------------|
|-------------------|--------------------|--------------------|
|-------------------|--------------------|--------------------|

|------------0--------|-----------0--------|
|---------0-----0-----|--------0-----0-----|
|------0-----------0--|-----0-----------0--|
|---------------------|--------------------|
|---------------------|--------------------|
|--0------------------|--0-----------------|
|

|--------------------|--12-----------------|
|--------------------|--12-----------------|
|-2p0--0-------------|--12-----------------|
|----4---------------|---------------------|
|--------------------|---------------------|
|--------------------|---------------------|

Soyez le premier à commenter

Poster un Commentaire

Votre adresse de messagerie ne sera pas publiée.




Time limit is exhausted. Please reload CAPTCHA.