Muse Animals

Share Button

 

Tablature Muse animals

Imprimer cette tablature Imprimer cette tablature

Toutes les tablatures sont ici  http://guitarepourdebutant.fr/tablatures-faciles/

 

Intro
E|------------|
B|------------|
G|----9~------|
D|------------|
A|------------|
E|------------|

Couplet 1 
E|---------------------------------------------------------|
B|---------------------------------------------------------|
G|----11-12-14-----12-11-12tr11h9(b9)---------------------|
D|--------------------------------------(b9)10-12-10-9(b9)--|
A|---------------------------------------------------------|
E|---------------------------------------------------------|

E|---------------------------------------------------------|
B|---------------------------------------------------------|
G|----11-12-14-----12-11-12tr11h9(b9)---------------------|
D|--------------------------------------(b9)10-12-10-9(b9)--|
A|---------------------------------------------------------|
E|---------------------------------------------------------|

E|----------------12-----------------------15--------------|
B|-------------------15b17--17-17b15-13-12----12-13--------|
G|---11-12-14b---------------------------------------------|
D|---------------------------------------------------------|
A|---------------------------------------------------------|
E|---------------------------------------------------------|

Pre refrain
E|---------------------------------------------------------|
B|---------------------------------------------------------|
G|----------11----12----14---------11-14-16~---------------|
D|----12---------------------10-12-------------------------|
A|---------------------------------------------------------|
E|---------------------------------------------------------|

Refrain
E|---------------------------------------------------------|
B|------------------13~------12----10-12--16~--------------|
G|-----16\(14)---12----------------------------------------|
D|---------------------------------------------------------|
A|---------------------------------------------------------|
E|---------------------------------------------------------|

E|-------------------------------------------------------------|
B|-------------------------------------------------------------|
G|------------12-16-14-12-14-12-11h12p11---11------------------|
D|----------14---------------------------14--14-12-14-12-10----|
A|--------14------------------------------------------------14-|
E|---12-15-----------------------------------------------------|

E|-------------------------------------------------------------|
B|------------13-17-15-13-15-13-12h13p12---12------------------|
G|----------14---------------------------14--14-12-14-12-11----|  x2
D|--------14------------------------------------------------14-|
A|---12-15-----------------------------------------------------|
E|-------------------------------------------------------------|

E|---------------------------------------------------------|
B|---------------------------8-----------------------------|
G|----11-12-14-12--11-11b(12)-11b--7h8h(b9)(b9)7-5-4-----------|
D|---------------------------------------------------------|
A|---------------------------------------------------------|
E|---------------------------------------------------------|

E|--------------------------------12--12-----15--15--------|
B|----------12--15b17--17-17b15-13--13--13-12--12--12-13---|
G|---14b--14-----------------------------------------------|
D|---------------------------------------------------------|
A|---------------------------------------------------------|
E|---------------------------------------------------------|

E|---------------------------------------------------------|
B|---------------------------------------------------------|
G|----------(b9)11---(b9)11-12--11-12-14----------11-14-16~----|
D|----12--12-----------------------------10-12-------------|
A|-------------------------------------12------------------|
E|---------------------------------------------------------|

E|---------------------------------------------------------|
B|------------------13~------12----10-12--16~--------------|
G|-----16\(14)---12----------------------------------------|
D|---------------------------------------------------------|
A|---------------------------------------------------------|
E|---------------------------------------------------------|

E|--------------------------|
B|--------------------------|
G|--------------------------| x4
D|--------------------------|
A|--------------------------|
E|---0-0-0-12-0-0-10-0-8-0--|

E|--------------------------------------------------------------|
B|--------------------------------------------------------------|
G|-------12----12-14-12----12----------12----12-14-12----12-----|
D|-14-16----16----------16----16-14-16----16----------16----16--|
A|--------------------------------------------------------------|
E|--------------------------------------------------------------|

E|-------------------------------------------------------------------|
B|-------13----13-15-13----13----------12----12-13-12----12----------|
G|-14-16----16----------16----16-12-14----14----------14----14-12----|
D|----------------------------------------------------------------16-|
A|-------------------------------------------------------------------|
E|-------------------------------------------------------------------|

E|--------------------------------------------------------------|
B|--------------------------------------------------------------|
G|-------12----12-14-12----12----------12----12-14-12----12-----|
D|-14-16----16----------16----16-14-16----16----------16----16--|
A|--------------------------------------------------------------|
E|--------------------------------------------------------------|

E|-------------------------------------------------------------------|
B|-------13----13-15-13----13----------12----12-13-12----13-12-------|
G|-14-16----16----------16----16-12-14----14----------14-------14-12-|
D|-------------------------------------------------------------------|
A|-------------------------------------------------------------------|
E|-------------------------------------------------------------------|

Soyez le premier à commenter

Poster un Commentaire

Votre adresse de messagerie ne sera pas publiée.




Time limit is exhausted. Please reload CAPTCHA.