Noir désir – l’homme pressé

Share Button
Imprimer cette tablature Imprimer cette tablature

Toutes les tablatures sont ici  http://guitarepourdebutant.fr/tablatures-faciles/

Tablature noir désir – l’homme pressé

 

Intro
|----8-----------------------|----8-----------------------|
|--------10----8---10----8---|--------10----8---10----8---|
|----------------------------|----------------------------|
|----------------------------|----------------------------|
|----------------------------|----------------------------|
|----------------------------|----------------------------|

Couplet
                               7X                                2X    
|--------------------------------|---------------------------------| 
|--------------------------------|---------------------------------| 
|--------------------------------|---------------------------------| 
|--7---x-x-7---x-x-7---x-x-7- 10-|-12--x-x-12--x-x-12--x-x-12--15--| 
|--7---x-x-7---x-x-7---x-x-7- 10-|-12--x-x-12--x-x-12--x-x-12--15--| 
|--5---x-x-5---x-x-5---x-x-5---8-|-10--x-x-10--x-x-10--x-x-10--13--| 

                               4X                                      
|--------------------------------|-----------------|-----------------|
|--------------------------------|-----------------|-----------------|
|--------------------------------|-----------------|-----------------|
|--7---x-x-7---x-x-7---x-x-7- 10-|-5-5-5-5-5-5-5-5-|-3-3-3-3-3-3-3-3-|
|--7---x-x-7---x-x-7---x-x-7- 10-|-5-5-5-5-5-5-5-5-|-3-3-3-3-3-3-3-3-| 
|--5---x-x-5---x-x-5---x-x-5---8-|-3-3-3-3-3-3-3-3-|-1-1-1-1-1-1-1-1-|

Refrain
|----------------------------------|-----------------------------------
|----------------------------------|-----------------------------------
|----------------------------------|-----------------------------------
|--7---7---7---7---5---5---10--10--|-10--10--10--10--10--10--10--10----
|--7---7---7---7---5---5---10--10--|-10--10--10--10--10--10--10--10----
|--5---5---5---5---5---5---8---8---|-8---8---8---8---8---8---8---8-----

|--------------------------------|---------------------------------|---
|--------------------------------|---------------------------------|---
|--------------------------------|---------------------------------|---
|--5---5---5---5---5---5---5---5-|-7---x-x-7---x-x-7---x-x-7---x-x-|---
|--5---5---5---5---5---5---5---5-|-7---x-x-7---x-x-7---x-x-7---x-x-|---
|--3---3---3---3---3---3---3---3-|-5---x-x-5---x-x-5---x-x-5---x-x-|---

Pont (guitare 1 = refrain), guitare 2:
|----------------------|-------------------------|---------------------
|----------------------|-------------------------|---------------------
|--9---11--9---11--9-9-|-11--13--11--13--11--11--|-12----14 12-12--14--
|--7-7---7---7-----7-7-|-9-9---9---9-----9---9---|-10 10--- 10-10--12--
|----------------------|-------------------------|---------------------
|----------------------|-------------------------|---------------------

 -------------------|
 -------------------|
 ------16---14--14--|
 --12-------12--12--|
 -------------------|
 -------------------|

 

Soyez le premier à commenter

Poster un Commentaire

Votre adresse de messagerie ne sera pas publiée.




Time limit is exhausted. Please reload CAPTCHA.