Pink Floyd Wish You Were Here

Share Button
 Pink Floyd  Wish You Were Here

/=slide up
\=slide down
b=bend
p=pulloff
h=hammeron
X=mute corde
Toutes les tablatures sont ici  http://guitarepourdebutant.fr/tablatures-faciles/


Pink Floyd

 

 *Part I 

Intro 
|-13b15---13-15-------------------------10---------------------------|
|-----------------------11-13-13b15--13--------15b13p11-13-15--13-15-|
|--------------------12----------------------------------------------|
|--------------------------------------------------------------------|
|--------------------------------------------------------------------|
|--------------------------------------------------------------------|

|----------------------------------------------------------------------|
|----------------------------------------------------------------------|
|-14b15b14-12-14------------------12b14.5-14.5---14.5b12--10-12-12-b15-|
|-----------------15-15-12-15------------------------------------------|
|----------------------------------------------------------------------|
|----------------------------------------------------------------------|

|----------------------------13--13b15----15-15-18--18b20-18-\--|
|---------------------13-b15------------------------------------|
|-12b15b12-10-12-12---------------------------------------------|
|---------------------------------------------------------------|
|---------------------------------------------------------------|
|---------------------------------------------------------------|

|-----------------------------------------------------------------|
|-15b13p11--------------------------------------15b13p11-13-13b15-|
|---------------10--12---12b15-15-15--10-12-----------------------|
|------------12---------------------------------------------------|
|-----------------------------------------------------------------|
|-----------------------------------------------------------------|

|-------13--13b15-15-13b15----15b13p10------------------------|
|-13b15--------------------------------13b15---15b13-11-13-13-|
|-------------------------------------------------------------|
|-------------------------------------------------------------|
|-------------------------------------------------------------|
|-------------------------------------------------------------|

|------------------------------------13-------------18------18-18b20-|
|-----11---15b13p11-13-13b15---13b15----15---/20-20------------------|
|-/12----------------------------------------------------19----------|
|--------------------------------------------------------------------|
|--------------------------------------------------------------------|
|--------------------------------------------------------------------|

|-18b20b18-17----15--------------------|
|-------------18-----------------------|
|--------------------------------------|
|--------------------------------------|
|--------------------------------------|
|--------------------------------------|

                           *Part II 
|-------0---------------------0--------------|
|---6---------------------6------------------|
|-----0---------------------0----------------|
|-8---------------------8--------------------|
|--------------------------------------------|
|--------------------------------------------|

|-------0-----------0------------0--12~----------0--12~-|
|---6-----------6------------6------13~------6------13~-|
|-----0-----------0------------0----12~--------0----12~-|
|-8-----------8------------8---------------8------------|
|-------------------------------------------------------|
|-------------------------------------------------------|

|---------------------------10~-----------0---10~---|
|---------------------------11~-------6-------11~---|
|---------------------------12~---------0-----12~---|
|-----------------------------------8---------------|
|-3-3-3-3-3-3-3-3-3-3-3/5---------------------------|
|-1-1-1-1-1-1-1-1-1-1-1/3---------------------------|

|-----------11~---------10~----------------------------10~-|
|---6-------11~---------10~----------------------------11~-|
|-----0-8---12~---8-7---11~----------------------------12~-|
|-8--------------------------------------------------------|
|----------------------------3-3-3-3-3-3-3-3-3-3-3/5-------|
|----------------------------1-1-1-1-1-1-1-1-1-1-1/3-------|

|-------0---10~---|
|---6-------11~---|
|-----0-----12~---|
|-8---------------|
|-----------------|
|-----------------|

Solo 
|-----------------------3--------------------------18p15----18---17b18-17-|
|-13-b15--13-15-------3---6------------------------------15---------------|
|---------------14----------5b7--7b5p3-5-3--------------------------------|
|------------------------------------------5------------------------------|
|-------------------------------------------------------------------------|
|-------------------------------------------------------------------------|

|------------------------------18p15----18p15----18b20---20b18p15-18-15-|
|-18p15-18b20---20b18p15-18----------15-------15------------------------|
|-----------------------------------------------------------------------|
|-----------------------------------------------------------------------|
|-----------------------------------------------------------------------|
|-----------------------------------------------------------------------|

|------------------------------------------------------------------6-----|
|-11h13p11-13b15--11-13----------------------------------------------6-8-|
|-----------------------12-----5b7-5-------------------3--------/7-------|
|------------------------------------5-------------------3-5-------------|
|---------------------------------------3b5-3-------/5-------------------|
|---------------------------------------------3--------------------------|

|-----------------------------------------------------------------|
|-11p10p8----8-----11--13b15b13b13--14b16---14b16---14b16-b-14----|
|---------10--------------------------------------------------11--|
|-----------------------------------------------------------------|
|-----------------------------------------------------------------|
|-----------------------------------------------------------------|

|------------------|------------------------------------17-18-17-------|
|------------------|-18b20-20-18b20b18p15---18b20-20-20----------18b20-|
|-11h12p11\9h11-11-|---------------------------------------------------|
|------------------|---------------------------------------------------|
|------------------|---------------------------------------------------|
|------------------|---------------------------------------------------|

|-------------------------------------------------------------------------|
|-20b18p15-18-------------------------------3b4---4b3-----3---------6-----|
|-------------17b19---19b17p15----------3-5-----------3-5-----5b7-7---6b8-|
|------------------------------17-----5-----------------------------------|
|-------------------------------------------------------------------------|
|-------------------------------------------------------------------------|

|-----------------------|
|-----------------------|
|-7b5p3-5-5b7-----------|
|-----------------------|
|-----------------------|
|-----------------------|

 

Soyez le premier à commenter

Poster un Commentaire

Votre adresse de messagerie ne sera pas publiée.




Time limit is exhausted. Please reload CAPTCHA.