Guitare pour Débutant

Vous débutez la guitare ou vous souhaitez progresser ?

Pixies – Where Is My Mind

Share Button

Pixies – Where Is My Mind

Toutes les tablatures sont ici  http://guitarepourdebutant.fr/tablatures-faciles/

 

   Guitar 1. Intro:
|--|---------0-------|---------4-------|---------4-------|----------------|
|0-|-0---0---0---0-0-|-5---5---5---5-5-|-4---4---4---4-4-|-5-5-5-5-5-5-5-5|
|1-|-1---1---1---1-1-|-6---6---6---6-6-|-5---5---5---5-5-|-6-6-6-6-6-6-6-6|
|2-|-2---2---2---2-2-|-6---6---6---6-6-|-6---6---6---6-6-|-7-7-7-6-7-7-7-7|
|2-|-2---2---2---2-2-|-4---4---4---4-4-|-6---6---6---6-6-|-7-7-7-7-7-7-7-7|
|0-|-0---0---0---0-0-|-4---4---4---4-4-|-4---4---4---4-4-|-5-5-5-5-5-5-5-5|

  Guitar 1.
|---------0-------|---------4-------|---------4-------|-----------------|
|-0---0---0---0-0-|-5---5---5---5-5-|-4---4---4---4-4-|-5-5-5-5-5-5-5-5-|
|-1---1---1---1-1-|-6---6---6---6-6-|-5---5---5---5-5-|-6-6-6-6-6-6-6-6-|
|-2---2---2---2-2-|-6---6---6---6-6-|-6---6---6---6-6-|-7-7-7-6-7-7-7-7-|
|-2---2---2---2-2-|-4---4---4---4-4-|-6---6---6---6-6-|-7-7-7-7-7-7-7-7-|
|-0---0---0---0-0-|-4---4---4---4-4-|-4---4---4---4-4-|-5-5-5-5-5-5-5-5-|
|                 |                 |                 |                 |

  Guitar 1.
|---------0-------|---------4-------|---------4-------|-----------------|
|-0---0---0---0-0-|-5---5---5---5-5-|-4---4---4---4-4-|-5-5-5-5-5-5-5-5-|
|-1---1---1---1-1-|-6---6---6---6-6-|-5---5---5---5-5-|-6-6-6-6-6-6-6-6-|
|-2---2---2---2-2-|-6---6---6---6-6-|-6---6---6---6-6-|-7-7-7-6-7-7-7-7-|
|-2---2---2---2-2-|-4---4---4---4-4-|-6---6---6---6-6-|-7-7-7-7-7-7-7-7-|
|-0---0---0---0-0-|-4---4---4---4-4-|-4---4---4---4-4-|-5-5-5-5-5-5-5-5-|

|                 |                 |                 |                 |
| Guitar 2.       |                 |                 |                 |
|-----------------|-----------------|-----------------|-----------------|
|------9-------9--|------9-------9--|------9-------9--|-----------------|
|--9-------9------|--9-------9------|--8-------8------|--9---9p8-9--9-9-|
|-----------------|-----------------|-----------------|-----------------|
|-----------------|-----------------|-----------------|-----------------|
|-----------------|-----------------|-----------------|-----------------|

  Guitar 1.
|---------0-------|---------4-------|---------4-------|-----------------|
|-0---0---0---0-0-|-5---5---5---5-5-|-4---4---4---4-4-|-5-5-5-5-5-5-5-5-|
|-1---1---1---1-1-|-6---6---6---6-6-|-5---5---5---5-5-|-6-6-6-6-6-6-6-6-|
|-2---2---2---2-2-|-6---6---6---6-6-|-6---6---6---6-6-|-7-7-7-6-7-7-7-7-|
|-2---2---2---2-2-|-4---4---4---4-4-|-6---6---6---6-6-|-7-7-7-7-7-7-7-7-|
|-0---0---0---0-0-|-4---4---4---4-4-|-4---4---4---4-4-|-5-5-5-5-5-5-5-5-|
|                 |                 |                 |                 |

| Guitar 2.       |                 |                 |                 |
|-----------------|-----------------|-----------------|-----------------|
|------9-------9--|------9-------9--|------9-------9--|-----------------|
|--9-------9------|--9-------9------|--8-------8------|--9---9p8-9--9-9-|
|-----------------|-----------------|-----------------|-----------------|
|-----------------|-----------------|-----------------|-----------------|
|-----------------|-----------------|-----------------|-----------------|
|                 |                 |                 |                 |

  verse:

    Guitar 1.
  |---------0-------|---------4-------|---------4-------|-----------------|
  |-0---0---0---0-0-|-5---5---5---5-5-|-4---4---4---4-4-|-5-5-5-5-5-5-5-5-|
  |-1---1---1---1-1-|-6---6---6---6-6-|-5---5---5---5-5-|-6-6-6-6-6-6-6-6-|
  |-2---2---2---2-2-|-6---6---6---6-6-|-6---6---6---6-6-|-7-7-7-6-7-7-7-7-|
  |-2---2---2---2-2-|-4---4---4---4-4-|-6---6---6---6-6-|-7-7-7-7-7-7-7-7-|
  |-0---0---0---0-0-|-4---4---4---4-4-|-4---4---4---4-4-|-5-5-5-5-5-5-5-5-|

  |                 |                 |                 |                 |
  | Guitar 2.       |                 |                 |                 |
  |-----------------|-----------------|-----------------|-----------------|
  |------9-------9--|------9-------9--|------9-------9--|-----------------|
  |--9-------9------|--9-------9------|--8-------8------|--9---9p8-9--9-9-|
  |-----------------|-----------------|-----------------|-----------------|
  |-----------------|-----------------|-----------------|-----------------|
  |-----------------|-----------------|-----------------|-----------------|
  |                 |                 |                 |                 |

  Guitar 1.
|---------0-------|---------4-------|---------4-------|-----------------|
|-0---0---0---0-0-|-5---5---5---5-5-|-4---4---4---4-4-|-5-5-5-5-5-5-5-5-|
|-1---1---1---1-1-|-6---6---6---6-6-|-5---5---5---5-5-|-6-6-6-6-6-6-6-6-|
|-2---2---2---2-2-|-6---6---6---6-6-|-6---6---6---6-6-|-7-7-7-6-7-7-7-7-|
|-2---2---2---2-2-|-4---4---4---4-4-|-6---6---6---6-6-|-7-7-7-7-7-7-7-7-|
|-0---0---0---0-0-|-4---4---4---4-4-|-4---4---4---4-4-|-5-5-5-5-5-5-5-5-|
|                 |                 |                 |                 |

| Guitar 2.       |                 |                 |                 |
|-----------------|-----------------|-----------------|-----------------|
|------9-------9--|------9-------9--|------9-------9--|-----------------|
|--9-------9------|--9-------9------|--8-------8------|--9---9p8-9--9-9-|
|-----------------|-----------------|-----------------|-----------------|
|-----------------|-----------------|-----------------|-----------------|
|-----------------|-----------------|-----------------|-----------------|

  Guitar 1.
|---------0-------|---------4-------|---------4-------|-----------------|
|-0---0---0---0-0-|-5---5---5---5-5-|-4---4---4---4-4-|-5-5-5-5-5-5-5-5-|
|-1---1---1---1-1-|-6---6---6---6-6-|-5---5---5---5-5-|-6-6-6-6-6-6-6-6-|
|-2---2---2---2-2-|-6---6---6---6-6-|-6---6---6---6-6-|-7-7-7-6-7-7-7-7-|
|-2---2---2---2-2-|-4---4---4---4-4-|-6---6---6---6-6-|-7-7-7-7-7-7-7-7-|
|-0---0---0---0-0-|-4---4---4---4-4-|-4---4---4---4-4-|-5-5-5-5-5-5-5-5-|
|                 |                 |                 |                 |

| Guitar 2.       |                 |                 |                 |
|-----------------|-----------------|-----------------|-----------------|
|------9-------9--|------9-------9--|------9-------9--|-----------------|
|--9-------9------|--9-------9------|--8-------8------|--9---9p8-9--9-9-|
|-----------------|-----------------|-----------------|-----------------|
|-----------------|-----------------|-----------------|-----------------|
|-----------------|-----------------|-----------------|-----------------|

  Guitar 1.
|---------0-------|---------4-------|---------4-------|-----------------|
|-0---0---0---0-0-|-5---5---5---5-5-|-4---4---4---4-4-|-5-5-5-5-5-5-5-5-|
|-1---1---1---1-1-|-6---6---6---6-6-|-5---5---5---5-5-|-6-6-6-6-6-6-6-6-|
|-2---2---2---2-2-|-6---6---6---6-6-|-6---6---6---6-6-|-7-7-7-6-7-7-7-7-|
|-2---2---2---2-2-|-4---4---4---4-4-|-6---6---6---6-6-|-7-7-7-7-7-7-7-7-|
|-0---0---0---0-0-|-4---4---4---4-4-|-4---4---4---4-4-|-5-5-5-5-5-5-5-5-|

  Guitar 1.
|---------0-------|---------4-------|---------4-------|-----------------|
|-0---0---0---0-0-|-5---5---5---5-5-|-4---4---4---4-4-|-5-5-5-5-5-5-5-5-|
|-1---1---1---1-1-|-6---6---6---6-6-|-5---5---5---5-5-|-6-6-6-6-6-6-6-6-|
|-2---2---2---2-2-|-6---6---6---6-6-|-6---6---6---6-6-|-7-7-7-6-7-7-7-7-|
|-2---2---2---2-2-|-4---4---4---4-4-|-6---6---6---6-6-|-7-7-7-7-7-7-7-7-|
|-0---0---0---0-0-|-4---4---4---4-4-|-4---4---4---4-4-|-5-5-5-5-5-5-5-5-|
|                 |                 |                 |                 |
| Guitar 2.       |                 |                 |                 |

|                 |                 |                 |                 |
|-----------------|-----------------|-----------------|-----------------|
|-----------------|-----------------|-----------------|-----------------|
|-----------------|--4---4---4---4--|-----------------|-----------------|
|--0---0---0---0--|-----------------|--4---4---4---4--|--5---5---5---5--|

  Guitar 1. 
|---------0-------|---------4-------|---------4-------|-----------------|
|-0---0---0---0-0-|-5---5---5---5-5-|-4---4---4---4-4-|-5-5-5-5-5-5-5-5-|
|-1---1---1---1-1-|-6---6---6---6-6-|-5---5---5---5-5-|-6-6-6-6-6-6-6-6-|
|-2---2---2---2-2-|-6---6---6---6-6-|-6---6---6---6-6-|-7-7-7-6-7-7-7-7-|
|-2---2---2---2-2-|-4---4---4---4-4-|-6---6---6---6-6-|-7-7-7-7-7-7-7-7-|
|-0---0---0---0-0-|-4---4---4---4-4-|-4---4---4---4-4-|-5-5-5-5-5-5-5-5-|
|                 |                 |                 |                 |
| Guitar 2.       |                 |                 |                 |
|-----------------|-----------------|-----------------|-----------------|
|-----------------|-----------------|-----------------|-----------------|
|-----------------|--6--------------|-----------------|-----------------|
|--2--------------|--6--------------|--6--------------|--7--------------|
|--2--------------|--4--------------|--6--------------|--7--------------|
|--0--------------|-----------------|--4--------------|--5--------------|

  Guitar 1. 
|---------0-------|---------4-------|---------5-------|-----------------|
|-0---0---0---0-0-|-4---4---4---4-4-|-5---5---5---5-5-|--5---5---5--5-5-|
|-1---1---1---1-1-|-5---5---5---5-5-|-6---6---6---6-6-|--5---5---5--5-5-|
|-2---2---2---2-2-|-6---6---6---6-6-|-7---7---7---7-7-|--7---7---7--7-7-|
|-2---2---2---2-2-|-6---6---6---6-6-|-7---7---7---7-7-|--7---7---7--7-7-|
|-0---0---0---0-0-|-4---4---4---4-4-|-5---5---5---5-5-|--5---5---5--5-5-|
|                 |                 |                 |                 |

| Guitar 2.       |                 |                 |                 |
|-----------------|-----------------|-----------------|-----------------|
|-----------------|-----------------|-----------------|-----------------|
|-----------------|-----------------|------------6----|--5------5-------|
|-2---2---2---2-2-|-6---6---6---6-6-|-7----7-----7----|--7------7-------|
|-2---2---2---2-2-|-6---6---6---6-6-|-7----7-----7----|--7------7-------|
|-0---0---0---0-0-|-4---4---4---4-4-|-5----5-----5----|--5------5-------|

  Guitar 1.
|--4--------------|-2--2--2-2-2-2-2-|
|--5--------------|-4—-4--4-4-4-4-4-|
|--6--------------|-4--4--4-4-4-4-4-|
|--6--------------|-4--4--4-4-4-4-4-|
|--4--------------|-2--2--2-2-2-2-2-|
|--4--------------|-2--2--2-2-2-2-2-|
|                 |                 |
| Guitar 2.       |                 |
|-----------------|-----------------|
|-----------------|-----------------|
|--6--------------|-4--4--4-4-4-4-4-|
|--6--------------|-4--4--4-4-4-4-4-|
|--4--------------|-2--2--2-2-2-2-2-|
|-----------------|-----------------|
|                 |                 |

    Guitar 1.
  |---------0-------|---------4-------|---------4-------|-----------------|
  |-0---0---0---0-0-|-5---5---5---5-5-|-4---4---4---4-4-|-5-5-5-5-5-5-5-5-|
  |-1---1---1---1-1-|-6---6---6---6-6-|-5---5---5---5-5-|-6-6-6-6-6-6-6-6-|
  |-2---2---2---2-2-|-6---6---6---6-6-|-6---6---6---6-6-|-7-7-7-6-7-7-7-7-|
  |-2---2---2---2-2-|-4---4---4---4-4-|-6---6---6---6-6-|-7-7-7-7-7-7-7-7-|
  |-0---0---0---0-0-|-4---4---4---4-4-|-4---4---4---4-4-|-5-5-5-5-5-5-5-5-|
  |                 |                 |                 |                 |
  | Guitar 2.       |                 |                 |                 |
  |-----------------|-----------------|-----------------|-----------------|
  |------9-------9--|------9-------9--|------9-------9--|-----------------|
  |--9-------9------|--9-------9------|--8-------8------|--9---9p8-9--9-9-|
  |-----------------|-----------------|-----------------|-----------------|
  |-----------------|-----------------|-----------------|-----------------|
  |-----------------|-----------------|-----------------|-----------------|
  |                 |                 |                 |                 |

  Guitar 1.
|---------0-------|---------4-------|---------4-------|-----------------|
|-0---0---0---0-0-|-5---5---5---5-5-|-4---4---4---4-4-|-5-5-5-5-5-5-5-5-|
|-1---1---1---1-1-|-6---6---6---6-6-|-5---5---5---5-5-|-6-6-6-6-6-6-6-6-|
|-2---2---2---2-2-|-6---6---6---6-6-|-6---6---6---6-6-|-7-7-7-6-7-7-7-7-|
|-2---2---2---2-2-|-4---4---4---4-4-|-6---6---6---6-6-|-7-7-7-7-7-7-7-7-|
|-0---0---0---0-0-|-4---4---4---4-4-|-4---4---4---4-4-|-5-5-5-5-5-5-5-5-|
|                 |                 |                 |                 |

| Guitar 2.       |                 |                 |                 |
|-----------------|-----------------|-----------------|-----------------|
|------9-------9--|------9-------9--|------9-------9--|-----------------|
|--9-------9------|--9-------9------|--8-------8------|--9---9p8-9--9-9-|
|-----------------|-----------------|-----------------|-----------------|
|-----------------|-----------------|-----------------|-----------------|
|-----------------|-----------------|-----------------|-----------------|

  Guitar 1.
|---------0-------|---------4-------|---------4-------|-----------------|
|-0---0---0---0-0-|-5---5---5---5-5-|-4---4---4---4-4-|-5-5-5-5-5-5-5-5-|
|-1---1---1---1-1-|-6---6---6---6-6-|-5---5---5---5-5-|-6-6-6-6-6-6-6-6-|
|-2---2---2---2-2-|-6---6---6---6-6-|-6---6---6---6-6-|-7-7-7-6-7-7-7-7-|
|-2---2---2---2-2-|-4---4---4---4-4-|-6---6---6---6-6-|-7-7-7-7-7-7-7-7-|
|-0---0---0---0-0-|-4---4---4---4-4-|-4---4---4---4-4-|-5-5-5-5-5-5-5-5-|
|                 |                 |                 |                 |

| Guitar 2.       |                 |                 |                 |
|-----------------|-----------------|-----------------|-----------------|
|------9-------9--|------9-------9--|------9-------9--|-----------------|
|--9-------9------|--9-------9------|--8-------8------|--9---9p8-9--9-9-|
|-----------------|-----------------|-----------------|-----------------|
|-----------------|-----------------|-----------------|-----------------|
|-----------------|-----------------|-----------------|-----------------|

  Guitar 1.
|---------0-------|---------4-------|---------4-------|-----------------|
|-0---0---0---0-0-|-5---5---5---5-5-|-4---4---4---4-4-|-5-5-5-5-5-5-5-5-|
|-1---1---1---1-1-|-6---6---6---6-6-|-5---5---5---5-5-|-6-6-6-6-6-6-6-6-|
|-2---2---2---2-2-|-6---6---6---6-6-|-6---6---6---6-6-|-7-7-7-6-7-7-7-7-|
|-2---2---2---2-2-|-4---4---4---4-4-|-6---6---6---6-6-|-7-7-7-7-7-7-7-7-|
|-0---0---0---0-0-|-4---4---4---4-4-|-4---4---4---4-4-|-5-5-5-5-5-5-5-5-|
|                 |                 |                 |                 |

  Guitar 1.
|---------0-------|---------4-------|---------4-------|-----------------|
|-0---0---0---0-0-|-5---5---5---5-5-|-4---4---4---4-4-|-5-5-5-5-5-5-5-5-|
|-1---1---1---1-1-|-6---6---6---6-6-|-5---5---5---5-5-|-6-6-6-6-6-6-6-6-|
|-2---2---2---2-2-|-6---6---6---6-6-|-6---6---6---6-6-|-7-7-7-6-7-7-7-7-|
|-2---2---2---2-2-|-4---4---4---4-4-|-6---6---6---6-6-|-7-7-7-7-7-7-7-7-|
|-0---0---0---0-0-|-4---4---4---4-4-|-4---4---4---4-4-|-5-5-5-5-5-5-5-5-|
|                 |                 |                 |                 |
| Guitar 2.       |                 |                 |                 |

|-----------------|-----------------|-----------------|-----------------|
|-----------------|-----------------|-----------------|-----------------|
|-----------------|--4---4---4---4--|-----------------|-----------------|
|--0---0---0---0--|-----------------|--4---4---4---4--|--5---5---5---5--|

  Guitar 1. 
|---------0-------|---------4-------|---------4-------|-----------------|
|-0---0---0---0-0-|-5---5---5---5-5-|-4---4---4---4-4-|-5-5-5-5-5-5-5-5-|
|-1---1---1---1-1-|-6---6---6---6-6-|-5---5---5---5-5-|-6-6-6-6-6-6-6-6-|
|-2---2---2---2-2-|-6---6---6---6-6-|-6---6---6---6-6-|-7-7-7-6-7-7-7-7-|
|-2---2---2---2-2-|-4---4---4---4-4-|-6---6---6---6-6-|-7-7-7-7-7-7-7-7-|
|-0---0---0---0-0-|-4---4---4---4-4-|-4---4---4---4-4-|-5-5-5-5-5-5-5-5-|
|                 |                 |                 |                 |

| Guitar 2.       |                 |                 |                 |
|-----------------|-----------------|-----------------|-----------------|
|-----------------|-----------------|-----------------|-----------------|
|-----------------|--6--------------|-----------------|-----------------|
|--2--------------|--6--------------|--6--------------|--7--------------|
|--2--------------|--4--------------|--6--------------|--7--------------|
|--0--------------|-----------------|--4--------------|--5--------------|
|                 |                 |                 |                 |

  Guitar 1. 
|---------0-------|---------4-------|---------5-------|-----------------|
|-0---0---0---0-0-|-4---4---4---4-4-|-5---5---5---5-5-|--5---5---5--5-5-|
|-1---1---1---1-1-|-5---5---5---5-5-|-6---6---6---6-6-|--5---5---5--5-5-|
|-2---2---2---2-2-|-6---6---6---6-6-|-7---7---7---7-7-|--7---7---7--7-7-|
|-2---2---2---2-2-|-6---6---6---6-6-|-7---7---7---7-7-|--7---7---7--7-7-|
|-0---0---0---0-0-|-4---4---4---4-4-|-5---5---5---5-5-|--5---5---5--5-5-|
|                 |                 |                 |                 |

| Guitar 2.       |                 |                 |                 |
|-----------------|-----------------|-----------------|-----------------|
|-----------------|-----------------|-----------------|-----------------|
|-----------------|-----------------|------------6----|--5------5-------|
|-2---2---2---2-2-|-6---6---6---6-6-|-7----7-----7----|--7------7-------|
|-2---2---2---2-2-|-6---6---6---6-6-|-7----7-----7----|--7------7-------|
|-0---0---0---0-0-|-4---4---4---4-4-|-5----5-----5----|--5------5-------|
|                 |                 |                 |                 |

  Guitar 1.
|--4--------------|-2--2--2-2-2-2-2-|
|--5--------------|-4—-4--4-4-4-4-4-|
|--6--------------|-4--4--4-4-4-4-4-|
|--6--------------|-4--4--4-4-4-4-4-|
|--4--------------|-2--2--2-2-2-2-2-|
|--4--------------|-2--2--2-2-2-2-2-|
|                 |                 |

| Guitar 2.       |                 |
|-----------------|-----------------|
|-----------------|-----------------|
|--6--------------|-4--4--4-4-4-4-4-|
|--6--------------|-4--4--4-4-4-4-4-|
|--4--------------|-2--2--2-2-2-2-2-|
|-----------------|-----------------|

|-2---2---2--2-2--2-2-|-2---2---2--2-2--2-2--|-2---2---2--2-2--2-2--|
|-4---4---4--4-4--4-4-|-4---4---4--4-4--4-4--|-4---4---4--4-4--4-4--|
|-4---4---4--4-4--4-4-|-4---4---4--4-4--4-4--|-4---4---4--4-4--4-4--|
|-4---4---4--4-4--4-4-|-4---4---4--4-4--4-4--|-4---4---4--4-4--4-4--|
|-2---2---2--2-2--2-2-|-2---2---2--2-2--2-2--|-2---2---2--2-2--2-2--|
|-2---2---2--2-2--2-2-|-2---2---2--2-2--2-2--|-2---2---2--2-2--2-2--|
|                     |                      |                      |
| Guitar 2 solo       |                      |                      |
|---------------------|----------------------|--10-12-13-14--14-14\-|
|---------------------|-----------------10-10|12--------------------|
|-9b11--9b11--9b11\9-9|7-7-----7--9--11------|----------------------|
|---------------------|-----9----------------|----------------------|
|---------------------|----------------------|----------------------|
|---------------------|----------------------|----------------------|
|                     |                      |                      |

    Guitar 1.
  |---------0-------|---------4-------|---------4-------|-----------------|
  |-0---0---0---0-0-|-5---5---5---5-5-|-4---4---4---4-4-|-5-5-5-5-5-5-5-5-|
  |-1---1---1---1-1-|-6---6---6---6-6-|-5---5---5---5-5-|-6-6-6-6-6-6-6-6-|
  |-2---2---2---2-2-|-6---6---6---6-6-|-6---6---6---6-6-|-7-7-7-6-7-7-7-7-|
  |-2---2---2---2-2-|-4---4---4---4-4-|-6---6---6---6-6-|-7-7-7-7-7-7-7-7-|
  |-0---0---0---0-0-|-4---4---4---4-4-|-4---4---4---4-4-|-5-5-5-5-5-5-5-5-|
  |                 |                 |                 |                 |

  | Guitar 2.       |                 |                 |                 |
  |-----------------|-----------------|-----------------|-----------------|
  |------9-------9--|------9-------9--|------9-------9--|-----------------|
  |--9-------9------|--9-------9------|--8-------8------|--9---9p8-9--9-9-|
  |-----------------|-----------------|-----------------|-----------------|
  |-----------------|-----------------|-----------------|-----------------|
  |-----------------|-----------------|-----------------|-----------------|
  |                 |                 |                 |                 |

  Guitar 1.
|---------0-------|---------4-------|---------4-------|-----------------|
|-0---0---0---0-0-|-5---5---5---5-5-|-4---4---4---4-4-|-5-5-5-5-5-5-5-5-|
|-1---1---1---1-1-|-6---6---6---6-6-|-5---5---5---5-5-|-6-6-6-6-6-6-6-6-|
|-2---2---2---2-2-|-6---6---6---6-6-|-6---6---6---6-6-|-7-7-7-6-7-7-7-7-|
|-2---2---2---2-2-|-4---4---4---4-4-|-6---6---6---6-6-|-7-7-7-7-7-7-7-7-|
|-0---0---0---0-0-|-4---4---4---4-4-|-4---4---4---4-4-|-5-5-5-5-5-5-5-5-|
|                 |                 |                 |                 |

| Guitar 2.       |                 |                 |                 |
|-----------------|-----------------|-----------------|-----------------|
|------9-------9--|------9-------9--|------9-------9--|-----------------|
|--9-------9------|--9-------9------|--8-------8------|--9---9p8-9--9-9-|
|-----------------|-----------------|-----------------|-----------------|
|-----------------|-----------------|-----------------|-----------------|
|-----------------|-----------------|-----------------|-----------------|

  Guitar 1.
|---------0-------|---------4-------|---------4-------|-----------------|
|-0---0---0---0-0-|-5---5---5---5-5-|-4---4---4---4-4-|-5-5-5-5-5-5-5-5-|
|-1---1---1---1-1-|-6---6---6---6-6-|-5---5---5---5-5-|-6-6-6-6-6-6-6-6-|
|-2---2---2---2-2-|-6---6---6---6-6-|-6---6---6---6-6-|-7-7-7-6-7-7-7-7-|
|-2---2---2---2-2-|-4---4---4---4-4-|-6---6---6---6-6-|-7-7-7-7-7-7-7-7-|
|-0---0---0---0-0-|-4---4---4---4-4-|-4---4---4---4-4-|-5-5-5-5-5-5-5-5-|
|                 |                 |                 |                 |

| Guitar 2.       |                 |                 |                 |
|-----------------|-----------------|-----------------|-----------------|
|------9-------9--|------9-------9--|------9-------9--|-----------------|
|--9-------9------|--9-------9------|--8-------8------|--9---9p8-9--9-9-|
|-----------------|-----------------|-----------------|-----------------|
|-----------------|-----------------|-----------------|-----------------|
|-----------------|-----------------|-----------------|-----------------|

Chorus:

  Guitar 1.
|---------0-------|---------4-------|---------4-------|-----------------|
|-0---0---0---0-0-|-5---5---5---5-5-|-4---4---4---4-4-|-5-5-5-5-5-5-5-5-|
|-1---1---1---1-1-|-6---6---6---6-6-|-5---5---5---5-5-|-6-6-6-6-6-6-6-6-|
|-2---2---2---2-2-|-6---6---6---6-6-|-6---6---6---6-6-|-7-7-7-6-7-7-7-7-|
|-2---2---2---2-2-|-4---4---4---4-4-|-6---6---6---6-6-|-7-7-7-7-7-7-7-7-|
|-0---0---0---0-0-|-4---4---4---4-4-|-4---4---4---4-4-|-5-5-5-5-5-5-5-5-|
|                 |                 |                 |                 |

| Guitar 2.       |                 |                 |                 |
|-----------------|-----------------|-----------------|-----------------|
|-----------------|-----------------|-----------------|-----------------|
|-----------------|-----------------|-----------------|-----------------|
|-----------------|-----------------|-----------------|-----------------|
|-----------------|-----------------|-----------------|-----------------|
|-----------------|-----------------|-----------------|-----------------|

  Guitar 1.
|---------0-------|---------4-------|---------4-------|-----------------|
|-0---0---0---0-0-|-5---5---5---5-5-|-4---4---4---4-4-|-5-5-5-5-5-5-5-5-|
|-1---1---1---1-1-|-6---6---6---6-6-|-5---5---5---5-5-|-6-6-6-6-6-6-6-6-|
|-2---2---2---2-2-|-6---6---6---6-6-|-6---6---6---6-6-|-7-7-7-6-7-7-7-7-|
|-2---2---2---2-2-|-4---4---4---4-4-|-6---6---6---6-6-|-7-7-7-7-7-7-7-7-|
|-0---0---0---0-0-|-4---4---4---4-4-|-4---4---4---4-4-|-5-5-5-5-5-5-5-5-|
|                 |                 |                 |                 |

| Guitar 2.       |                 |                 |                 |
|-----------------|-----------------|-----------------|-----------------|
|-----------------|-----------------|-----------------|-----------------|
|-----------------|-----------------|-----------------|-----------------|
|-----------------|-----------------|-----------------|-----------------|
|-----------------|-----------------|-----------------|-----------------|
|-----------------|-----------------|-----------------|-----------------|
|                 |                 |                 |                 | 
|                 |                 |                 |                 |
|-----------------|-----------------|-----------------|-----------------|
|-----------------|-----------------|-----------------|-----------------|
|-----------------|--4---4---4---4--|-----------------|-----------------|
|--0---0---0---0--|-----------------|--4---4---4---4--|--5---5---5---5--|

  Guitar 1. 
|---------0-------|---------4-------|---------4-------|-----------------|
|-0---0---0---0-0-|-5---5---5---5-5-|-4---4---4---4-4-|-5-5-5-5-5-5-5-5-|
|-1---1---1---1-1-|-6---6---6---6-6-|-5---5---5---5-5-|-6-6-6-6-6-6-6-6-|
|-2---2---2---2-2-|-6---6---6---6-6-|-6---6---6---6-6-|-7-7-7-6-7-7-7-7-|
|-2---2---2---2-2-|-4---4---4---4-4-|-6---6---6---6-6-|-7-7-7-7-7-7-7-7-|
|-0---0---0---0-0-|-4---4---4---4-4-|-4---4---4---4-4-|-5-5-5-5-5-5-5-5-|
|                 |                 |                 |                 |

| Guitar 2.       |                 |                 |                 |
|-----------------|-----------------|-----------------|-----------------|
|-----------------|-----------------|-----------------|-----------------|
|-----------------|--6--------------|-----------------|-----------------|
|--2--------------|--6--------------|--6--------------|--7--------------|
|--2--------------|--4--------------|--6--------------|--7--------------|
|--0--------------|-----------------|--4--------------|--5--------------|
|                 |                 |                 |                 |

  Guitar 1. 
|---------0-------|---------4-------|---------5-------|-----------------|
|-0---0---0---0-0-|-4---4---4---4-4-|-5---5---5---5-5-|--5---5---5--5-5-|
|-1---1---1---1-1-|-5---5---5---5-5-|-6---6---6---6-6-|--5---5---5--5-5-|
|-2---2---2---2-2-|-6---6---6---6-6-|-7---7---7---7-7-|--7---7---7--7-7-|
|-2---2---2---2-2-|-6---6---6---6-6-|-7---7---7---7-7-|--7---7---7--7-7-|
|-0---0---0---0-0-|-4---4---4---4-4-|-5---5---5---5-5-|--5---5---5--5-5-|
|                 |                 |                 |                 |

| Guitar 2.       |                 |                 |                 |
|-----------------|-----------------|-----------------|-----------------|
|-----------------|-----------------|-----------------|-----------------|
|-----------------|-----------------|------------6----|--5------5-------|
|-2---2---2---2-2-|-6---6---6---6-6-|-7----7-----7----|--7------7-------|
|-2---2---2---2-2-|-6---6---6---6-6-|-7----7-----7----|--7------7-------|
|-0---0---0---0-0-|-4---4---4---4-4-|-5----5-----5----|--5------5-------|

  Guitar 1.
|--4--------------|-2--2--2-2-2-2-2-|
|--5--------------|-4—-4--4-4-4-4-4-|
|--6--------------|-4--4--4-4-4-4-4-|
|--6--------------|-4--4--4-4-4-4-4-|
|--4--------------|-2--2--2-2-2-2-2-|
|--4--------------|-2--2--2-2-2-2-2-|
|                 |                 |

| Guitar 2.       |                 |
|-----------------|-----------------|
|-----------------|-----------------|
|--6--------------|-4--4--4-4-4-4-4-|
|--6--------------|-4--4--4-4-4-4-4-|
|--4--------------|-2--2--2-2-2-2-2-|
|-----------------|-----------------|
|                 |                 |

Verse 4:

  Guitar 1.
|---------0-------|---------4-------|---------4-------|-----------------|
|-0---0---0---0-0-|-5---5---5---5-5-|-4---4---4---4-4-|-5-5-5-5-5-5-5-5-|
|-1---1---1---1-1-|-6---6---6---6-6-|-5---5---5---5-5-|-6-6-6-6-6-6-6-6-|
|-2---2---2---2-2-|-6---6---6---6-6-|-6---6---6---6-6-|-7-7-7-7-7-7-7-7-|
|-2---2---2---2-2-|-4---4---4---4-4-|-6---6---6---6-6-|-7-7-7-7-7-7-7-7-|
|-0---0---0---0-0-|-4---4---4---4-4-|-4---4---4---4-4-|-5-5-5-5-5-5-5-5-|
|                 |                 |                 |                 |

| Guitar 2.       |                 |                 |                 |
|-----------------|-----------------|-----------------|-----------------|
|------9-------9--|------9-------9--|------9-------9--|-----------------|
|--9-------9------|--9-------9------|--8-------8------|--9---9p8-9--9-9-|
|-----------------|-----------------|-----------------|-----------------|
|-----------------|-----------------|-----------------|-----------------|
|-----------------|-----------------|-----------------|-----------------|

  Guitar 1.
|---------0-------|---------4-------|---------4-------|-----------------|
|-0---0---0---0-0-|-5---5---5---5-5-|-4---4---4---4-4-|-5-5-5-5-5-5-5-5-|
|-1---1---1---1-1-|-6---6---6---6-6-|-5---5---5---5-5-|-6-6-6-6-6-6-6-6-|
|-2---2---2---2-2-|-6---6---6---6-6-|-6---6---6---6-6-|-7-7-7-7-7-7-7-7-|
|-2---2---2---2-2-|-4---4---4---4-4-|-6---6---6---6-6-|-7-7-7-7-7-7-7-7-|
|-0---0---0---0-0-|-4---4---4---4-4-|-4---4---4---4-4-|-5-5-5-5-5-5-5-5-|
|                 |                 |                 |                 |

| Guitar 2.       |                 |                 |                 |
|-----------------|-----------------|-----------------|-----------------|
|------9-------9--|------9-------9--|------9-------9--|-----------------|
|--9-------9------|--9-------9------|--8-------8------|--9---9p8-9--9-9-|
|-----------------|-----------------|-----------------|-----------------|
|-----------------|-----------------|-----------------|-----------------|
|-----------------|-----------------|-----------------|-----------------|

  Guitar 1.
|---------0-------|---------4-------|---------4-------|-----------------|
|-0---0---0---0-0-|-5---5---5---5-5-|-4---4---4---4-4-|-5-5-5-5-5-5-5-5-|
|-1---1---1---1-1-|-6---6---6---6-6-|-5---5---5---5-5-|-6-6-6-6-6-6-6-6-|
|-2---2---2---2-2-|-6---6---6---6-6-|-6---6---6---6-6-|-7-7-7-7-7-7-7-7-|
|-2---2---2---2-2-|-4---4---4---4-4-|-6---6---6---6-6-|-7-7-7-7-7-7-7-7-|
|-0---0---0---0-0-|-4---4---4---4-4-|-4---4---4---4-4-|-5-5-5-5-5-5-5-5-|
|                 |                 |                 |                 |

| Guitar 2.       |                 |                 |                 |
|-----------------|-----------------|-----------------|-----------------|
|------9-------9--|------9-------9--|------9-------9--|-----------------|
|--9-------9------|--9-------9------|--8-------8------|--9---9p8-9--9-9-|
|-----------------|-----------------|-----------------|-----------------|
|-----------------|-----------------|-----------------|-----------------|
|-----------------|-----------------|-----------------|-----------------|
|                 |                 |                 |                 |

  Guitar 1.
|---------0-------|---------4-------|---------4-------|-----------------|
|-0---0---0---0-0-|-5---5---5---5-5-|-4---4---4---4-4-|-5-5-5-5-5-5-5-5-|
|-1---1---1---1-1-|-6---6---6---6-6-|-5---5---5---5-5-|-6-6-6-6-6-6-6-6-|
|-2---2---2---2-2-|-6---6---6---6-6-|-6---6---6---6-6-|-7-7-7-7-7-7-7-7-|
|-2---2---2---2-2-|-4---4---4---4-4-|-6---6---6---6-6-|-7-7-7-7-7-7-7-7-|
|-0---0---0---0-0-|-4---4---4---4-4-|-4---4---4---4-4-|-5-5-5-5-5-5-5-5-|
|                 |                 |                 |                 |

| Guitar 2.       |                 |                 |                 |
|-----------------|-----------------|-----------------|-----------------|
|------9-------9--|------9-------9--|------9-------9--|-----------------|
|--9-------9------|--9-------9------|--8-------8------|--9---9p8-9--9-9-|
|-----------------|-----------------|-----------------|-----------------|
|-----------------|-----------------|-----------------|-----------------|
|-----------------|-----------------|-----------------|-----------------|

  Guitar 1.
|---------0-------|---------4-------|---------4-------|-----------------|
|-0---0---0---0-0-|-5---5---5---5-5-|-4---4---4---4-4-|-5-5-5-5-5-5-5-5-|
|-1---1---1---1-1-|-6---6---6---6-6-|-5---5---5---5-5-|-6-6-6-6-6-6-6-6-|
|-2---2---2---2-2-|-6---6---6---6-6-|-6---6---6---6-6-|-7-7-7-7-7-7-7-7-|
|-2---2---2---2-2-|-4---4---4---4-4-|-6---6---6---6-6-|-7-7-7-7-7-7-7-7-|
|-0---0---0---0-0-|-4---4---4---4-4-|-4---4---4---4-4-|-5-5-5-5-5-5-5-5-|
|                 |                 |                 |                 |

| Guitar 2.       |                 |                 |                 |
|-----------------|-----------------|-----------------|-----------------|
|------9-------9--|------9-------9--|------9-------9--|-----------------|
|--9-------9------|--9-------9------|--8-------8------|--9---9p8-9--9-9-|
|-----------------|-----------------|-----------------|-----------------|
|-----------------|-----------------|-----------------|-----------------|
|-----------------|-----------------|-----------------|-----------------|

  Guitar 1.
|---------0-------|---------4-------|---------4-------|-----------------|
|-0---0---0---0-0-|-5---5---5---5-5-|-4---4---4---4-4-|-5-5-5-5-5-5-5-5-|
|-1---1---1---1-1-|-6---6---6---6-6-|-5---5---5---5-5-|-6-6-6-6-6-6-6-6-|
|-2---2---2---2-2-|-6---6---6---6-6-|-6---6---6---6-6-|-7-7-7-7-7-7-7-7-|
|-2---2---2---2-2-|-4---4---4---4-4-|-6---6---6---6-6-|-7-7-7-7-7-7-7-7-|
|-0---0---0---0-0-|-4---4---4---4-4-|-4---4---4---4-4-|-5-5-5-5-5-5-5-5-|
|                 |                 |                 |                 |

| Guitar 2.       |                 |                 |                 |
|-----------------|-----------------|-----------------|-----------------|
|------9-------9--|------9-------9--|------9-------9--|-----------------|
|--9-------9------|--9-------9------|--8-------8------|--9---9p8-9--9-9-|
|-----------------|-----------------|-----------------|-----------------|
|-----------------|-----------------|-----------------|-----------------|
|-----------------|-----------------|-----------------|-----------------|

  Guitar 1.
|---------0-------|---------4-------|-----------------|-----------------|
|-0---0---0---0-0-|-5---5---5---5-5-|-4---4-----------|-----------------|
|-1---1---1---1-1-|-6---6---6---6-6-|-5---5-----------|-----------------|
|-2---2---2---2-2-|-6---6---6---6-6-|-6---6-----------|-----------------|
|-2---2---2---2-2-|-4---4---4---4-4-|-6---6-----------|-----------------|
|-0---0---0---0-0-|-4---4---4---4-4-|-4---4-----------|-----------------|
|                 |                 |                 |                 |

| Guitar 2.       |                 |                 |                 |
|-----------------|-----------------|-----------------|-----------------|
|------9-------9--|------9-------9--|------9----------|-----------------|
|--9-------9------|--9-------9------|--8--------------|-----------------|
|-----------------|-----------------|-----------------|-----------------|
|-----------------|-----------------|-----------------|-----------------|
|-----------------|-----------------|-----------------|-----------------|

Liens commerciaux

Archives

Lien commerciaux

Copyright © 2017 Guitare pour Débutant

En poursuivant votre navigation sur ce site, vous acceptez l'utilisation de cookies ou autres traceurs pour vous proposer des publicités ciblées, adaptées à vos centres d'intérêts, améliorer le fonctionnement du site et réaliser des statistiques de visites. Pour en savoir plus et paramétrer les cookies, cliquez ici. Plus d'info

Les paramètres des cookies sur ce site sont définis sur « accepter les cookies » pour vous offrir la meilleure expérience de navigation possible. Si vous continuez à utiliser ce site sans changer vos paramètres de cookies ou si vous cliquez sur "Accepter" ci-dessous, vous consentez à cela.

Fermer