Prayer in C – Lilly Wood And The Prick

Share Button
Tablature : Prayer in C - Lilly Wood And The Prick



Toutes les tablatures sont ici  http://guitarepourdebutant.fr/tablatures-faciles/

 

Intro:

e|---------------------------------------------------------------------------|
B|---------------------------------------------------------------------------|
G|---2--2--4--5--------------------------------------------------------------|
D|---------------------2--3p2--2--0--0--2--3--0--5--5--7p5--5----------------|
A|---0--0--0--0--0/-3--3--3----3-----------------5--5--5----5----------------|
E|--------------------------------3--3--3--3--3------------------------------|


______________________________________________________________________________



e|---------------------------------------------------------------------------|
B|---------------------------------------------------------------------------|
G|---2--2--4--5--2-----------------------------------------------------------|
D|------------------2--2--3p2--2--0--0--2--3--0--5--5--7p5--5----------------|
A|---0--0--0--0--0--3--3--3----3-----------------5--5--5----5----------------|
E|--------------------------------3--3--3--3--3------------------------------|


e|---------------------------------------------------------------------------|
B|---------------------------------------------------------------------------|
G|---2--2--4--5--2-----------------------------------------------------------|
D|------------------2--2--3p2--2--0--0--2--3--0--5---------------------------|
A|---0--0--0--0--0--3--3--3----3-----------------5---------------------------|
E|--------------------------------3--3--3--3--3------------------------------|


______________________________________________________________________________



Guitare II:

   Am                C                 G              Dm
e|----------------------------------------3--------3-------1--------1--------|
B|----1--------1--1-------1--------1------0--------0-------3--------3--------|
G|----2--------2----------0--------0------0--------0-------2--------2--------|
D|----2--------2----------2--------2--------------------0-----0--0-----------|
A|-0-----0--0----------3-----3--3--------------------------------------------|
E|-------------------------------------3-----3--3----------------------------|


  Am                C                 G              Dm
e|----------------------------------------3--------3-------1--------1--------|
B|----1--------1--1-------1--------1------0--------0-------3--------3--------|
G|----2--------2----------0--------0------0--------0-------2--------2--------|
D|----2--------2----------2--------2--------------------0-----0--0-----------|
A|-0-----0--0----------3-----3--3--------------------------------------------|
E|-------------------------------------3-----3--3----------------------------|


______________________________________________________________________________


Guitare I:

e|---------------------------------------------------------------------------|
B|---------------------------------------------------------------------------|
G|---2--2--4--5--2-----------------------------------------------------------|
D|------------------2--2--3p2--2--0--0--2--3--0--5--5--7p5--5----------------|
A|---0--0--0--0--0--3--3--3----3-----------------5--5--5----5----------------|
E|--------------------------------3--3--3--3--3------------------------------|

+Guitare II:

   Am                C                 G              Dm
e|----------------------------------------3--------3-------1--------1--------|
B|----1--------1--1-------1--------1------0--------0-------3--------3--------|
G|----2--------2----------0--------0------0--------0-------2--------2--------|
D|----2--------2----------2--------2-----------------------------------------|
A|---------------------------------------------------------------------------|
E|---------------------------------------------------------------------------|


Guitare I:

e|---------------------------------------------------------------------------|
B|---------------------------------------------------------------------------|
G|---2--2--4--5--2-----------------------------------------------------------|
D|------------------2--2--3p2--2--0--0--2--3--0--5---------------------------|
A|---0--0--0--0--0--3--3--3----3-----------------5---------------------------|
E|--------------------------------3--3--3--3--3------------------------------|

+Guitare II:

   Am                C                 G              Dm
e|----------------------------------------3--------3-------1-----------------|
B|----1--------1--1-------1--------1------0--------0-------3-----------------|
G|----2--------2----------0--------0------0--------0-------2-----------------|
D|----2--------2----------2--------2-----------------------------------------|
A|---------------------------------------------------------------------------|
E|---------------------------------------------------------------------------|


______________________________________________________________________________



   Am                C                 G              Dm
e|----------------------------------------3--------3-------1--------1--------|
B|----1--------1--1-------1--------1------0--------0-------3--------3--------|
G|----2--------2----------0--------0------0--------0-------2--------2--------|
D|----2--------2----------2--------2--------------------0-----0--0-----------|
A|-0-----0--0----------3-----3--3--------------------------------------------|
E|-------------------------------------3-----3--3----------------------------|


  Am                C                 G              Dm
e|----------------------------------------3--------3-------1--------1--------|
B|----1--------1--1-------1--------1------0--------0-------3--------3--------|
G|----2--------2----------0--------0------0--------0-------2--------2--------|
D|----2--------2----------2--------2--------------------0-----0--0-----------|
A|-0-----0--0----------3-----3--3--------------------------------------------|
E|-------------------------------------3-----3--3----------------------------|


______________________________________________________________________________



e|---------------------------------------------------------------------------|
B|---------------------------------------------------------------------------|
G|---2--2--4--5--2-----------------------------------------------------------|
D|------------------2--2--3p2--2--0--0--2--3--0--5--5--7p5--5----------------|
A|---0--0--0--0--0--3--3--3----3-----------------5--5--5----5----------------|
E|--------------------------------3--3--3--3--3------------------------------|


______________________________________________________________________________



Guitare I:

e|---------------------------------------------------------------------------|
B|---------------------------------------------------------------------------|
G|---2--2--4--5--2-----------------------------------------------------------|
D|------------------2--2--3p2--2--0--0--2--3--0--5--5--7p5--5----------------|
A|---0--0--0--0--0--3--3--3----3-----------------5--5--5----5----------------|
E|--------------------------------3--3--3--3--3------------------------------|


+Guitare II:

  Am                C                 G              Dm
e|----------------------------------------3--------3-------1--------1--------|
B|----1--------1--1-------1--------1------0--------0-------3--------3--------|
G|----2--------2----------0--------0------0--------0-------2--------2--------|
D|----2--------2----------2--------2--------------------0-----0--0-----------|
A|-0-----0--0----------3-----3--3--------------------------------------------|
E|-------------------------------------3-----3--3----------------------------|


______________________________________________________________________________


Guitare I:

e|---------------------------------------------------------------------------|
B|---------------------------------------------------------------------------|
G|---2--2--4--5--2-----------------------------------------------------------|
D|------------------2--2--3p2--2--0--0--2--3--0--5--5--7p5--5----------------|
A|---0--0--0--0--0--3--3--3----3-----------------5--5--5----5----------------|
E|--------------------------------3--3--3--3--3------------------------------|


+Guitare II:

  Am                C                 G              Dm
e|----------------------------------------3--------3-------1--------1--------|
B|----1--------1--1-------1--------1------0--------0-------3--------3--------|
G|----2--------2----------0--------0------0--------0-------2--------2--------|
D|----2--------2----------2--------2--------------------0-----0--0-----------|
A|-0-----0--0----------3-----3--3--------------------------------------------|
E|-------------------------------------3-----3--3----------------------------|






| /   slide 
| \   slide 
| h   hammer-on
| p   pull-off
| ~   vibrato
| +   harmonic
| x   Mute note
| b   Bend

Soyez le premier à commenter

Poster un Commentaire

Votre adresse de messagerie ne sera pas publiée.




Time limit is exhausted. Please reload CAPTCHA.