Radiohead – Creep

Share Button

 

Tablature Radiohead – Creep

 

Toutes les tablatures sont ici http://guitarepourdebutant.fr/tablatures-faciles/


1


e |----------------------------------|----------------------------------|
B |----------------------------------|3-----------------------3---------|
G |--------------------4-------------|----4-------4---------------------|
D |--------5-------5-----------5-----|--------5-------------------5/----|
A |----5-------5---------------------|----------------------------------|
E |3---------------------------------|----------------------------------|

                                   

e |----------------------------------|----------------------------------|
B |----------------------------------|----------------------------------|
G |--------8-----------8-------------|9-----------8-----------8---------|
D |------------9---------------------|------------9---------------9-----|
A |----9-----------9-----------------|----9-----------------------------|
E |7---------------------------------|----------------------------------|

e |----------------------------------|----------------------------------|
B |----------------------------------|----------------------------------|
G |--------9-----------9-------------|10----------9-----------9---------|
D |----------------------------------|----------------------------10----|
A |----10------10--------------10----|--------10----------10------------|
E |8---------------8-----------------|----------------------------------|

e |----------------------------------|----------------------------------|
B |----------------------------------|----------------------------------|
G |----8-----------8-----------------|----8-----------8-----------------|
D |--------10----------10------10----|--------10----------10------------|
A |10----------10----------10--------|10----------10----------10--------|
E |------------------------8---------|----------------------------------|

e |----------------------------------|----------------------------------|
B |----------------------------------|----------------------------------|
G |----------------------------------|4-----------------------4---------|
D |--------5----------5--------------|--------5-------------------5-----|
A |----5-------5---------------5-----|------------5-------5-------------|
E |3---------------3-----------------|----------------3-----------------|

e |----------------------------------|----------------------------------|
B |----------------------------------|----------------------------------|
G |----------------------------------|8-----------------------8---------|
D |(8)-----9-----------9-------------|----9-------9---------------9-----|
A |----9-----------9-----------9-----|--------9-----------9-------------|
E |7---------------------------------|----------------------------------|

e |----------------------------------|----------------------------------|
B |----------------------------------|----------------------------------|
G |--------------------9-------------|9---------------------------------|
D |--------10-----10-----------10----|----10------10----------10--------|
A |----10------10--------------------|--------10----------10------10----|
E |8---------------------------------|----------------------------------|

e |----------------------------------|----------------------------------|
B |----------------------------------|----------------------------------|
G |----------------8-----------------|8-------------------8-------------|
D |----10------10------10------10----|--------10--------------10--------|
A |--------10--------------10--------|----10------10--10----------10----|
E |8---------------------------------|----------------------------------|

e |----------------------------------|3-----------------------3---------|
B |----------------------------------|3-------------3-------------------|
G |--------4-----------4-------4-----|--------4-----4-------------4-----|
D |------------5---------------------|------------5---------------------|
A |----5-----------5-----------------|----------------------------------|
E |3---------------------------------|----------------------------------|

e |----------------------------------|7-----------------------7---------|
B |--------7-----------7-------7-----|7---7-------7---------------7-----|
G |--------8-------8-------8---------|--------8-----------8-------------|
D |----9-------9---------------------|----------------------------------|
A |9---------------------------------|----------------------------------|
E |----------------------------------|----------------------------------|

e |----------------------------------|8-----------------------8---------|
B |------------------------8---------|----8-------8---------------8-----|
G |--------9-------9-----------9-----|--------9-----------9-------------|
D |----10--------------10------------|----------------------------------|
A |10----------10--------------------|----------------------------------|
E |----------------------------------|----------------------------------|

   (Gtr.1 .)
e |----------------------------------|----------------------------------|
B |----8-----------------------------|----------------------------------|
G |--------8-------8-----------------|----8-----------8-----------------|
D |------------10------10------10----|--------10----------10------10----|
A |10----------------------10--------|10----------10----------10--------|
E |----------------------------------|----------------------------------|

  |(Gtr.2, elec. w/ HEAVY dist)
e |----------------------------------|------------------------*---------|
B |----------------------------------|----------------------------------|
G |----------------x-x---------------|----x-x-----------------x-x-0-0---|
D |----------------x-x---------------|----x-x-----------------x-x-0-0---|
A |----------------x-x---------------|----x-x-----------------x-x-------|
E |----------------x-x---------------|----x-x-----------------x-x-------|

{Gtr.2}
e |3---------------------------------|----------------------------------|
B |3---------------------------------|----------------------------------|
G |0---------------------------------|--------------------0---0---0-0---|
D |0---------------------------------|--------------------0---0---0-0---|
A |----------------------------------|----------------------------------|
E |3---------------------------------|--------------------3---3---------|

  |                                                        
{Gtr.1}
e |--------3-------3-----------------|----------------------------------|
B |------------------------0-1-3-----|----------------------------------|
G |0-------------------0-------------|----0-----------------------------|
D |0---------------------------------|------------0---------------------|
A |----------------------------------|----------------------------------|
E |3---------------------------------|--------------------3/-(22)\------|

{Gtr.2}
e |7-----------------7-7-7-7---7-----|----------------------------------|
B |7-----------------7-7-7-7---7-----|----------------0-0-0-0-0---------|
G |8-----------------8-8-8-8---8-----|----------------------------------|
D |9---------------------------9-----|----------------------------------|
A |9---------------------------9-----|----------------------------9-9---|
E |7---------------------------7-----|----------------------------7-7---|

  |                                                        
{Gtr.1}
e |----------------------------------|----------------------------------|
B |------------------------7---------|----------------------------------|
G |------------------------8-9-8-----|----------------------------------|
D |9-----------------------9---------|----9-----------------------------|
A |9---------------------------------|------------9-----------9---------|
E |7---------------------------------|--------------------7-------------|

e |----------------------------------|----------------------------------|
B |----------------------------------|----------------------------------|
G |----------------------------------|----------------------------------|
D |(10)*-*-*-10-10-10-10/-12-12------|(12)*-*-*-*-----------------------|
A |----------------------------------|----------------------------------|
E |-8--------8--8--8---8/-10-10------|(10)------------------------------|

  |
e |----------------------------------|----------------------------------|
B |------------------------8---------|----------------------------------|
G |9-----------------------9-10-9----|----------------------------------|
D |10----------------------10---10---|----10----------------------------|
A |10--------------------------------|------------10--------------------|
E |8---------------------------------|------------------------8---------|

 

e|--------------------------------|--------------------------------------|
B|--------------------------------|--------------------------------------|
G|--------------------------------|--------------------------------------|
D|(13)*-*-*-13-13-13-13/-15-15----|15-15-15-15--15--------------15/---17-|
A|--------------------------------|--------------------------------------|
E|(11)------11-11-11-11/-13-13----|13-13-13-13--13--------------13/---15-|

 |
e|--------------------------------|----8---------------------------------|
B|--------------------------------|----8---------------------------------|
G|8-------------------------------|----8---------------------------------|
D|(10)----------------------------|---(10)-------------------------------|
A|(10)----------------------------|---(10)-------------------------------|
E|8-------------------------------|----8---------------------------------|

2 Comments

Poster un Commentaire

Votre adresse de messagerie ne sera pas publiée.




Time limit is exhausted. Please reload CAPTCHA.