Rage Against The Machine – Killing In The Name

Share Button

 

Rage Against The Machine – Killing In The Name

Toutes les tablatures sont ici  http://guitarepourdebutant.fr/tablatures-faciles/


 

E --------|--------|--------|--------|-
B --------|--------|--------|--------|-
G --------|--------|--------|--------|-
D 0-------|0-------|0-------|0-------|-
A 0-------|0-------|0-------|0-------|-
D 0-------|0-------|0-------|0-------|-

  ======================REPEAT=x2=====================|
  ========REPEAT=x3=======|
E ------------------------|---------------------------|
B ------------------------|---------------------------|
G ------------------11-12-|------------------12h14p12-|
D ------------11-12-------|------------11-12----------|
A ------------------------|---------------------------|
D 0----0---0--------------|0----0---0-----------------|

  ========REPEAT=x3=======|
E ------------------------|------------------------|
B ------------------------|------------------------|
G ------------------------|------------------------|
D ------------8---8---8---|------------8\---------|
A 0---0---0---6---6---6---|0---0---0---6\---------|
D 0---0---0---------------|0---0---0---------------|

  ========REPEAT=x4========|
E -------------------------|
B -------------------------|
G -------------------------|
D ---------3s4-------------|
A ---3h5-x----5--0--2-3-2--|
D 0--------------0--2s3s2--|

  ========REPEAT=x16=======|
E -------------------------|
B -------------------------|
G -------------------------|
D ---------3s4-------------|
A ---3h5-x----5--0--2-3-2--|
D 0--------------0--2s3s2--|

E ------------------------|--------------------------|
B ------------------------|--------------------------|
G ---------4-----------3--|---------2----------------|
D ------------------------|--------------------------|
A ---3h5-x-------3h5-x----|---3h5-x-------2s3s2s3s2--|
D 0-----------0-----------|0-----------0--2s3s2s3s2--|

E ------------------------|----------------------------|
B ------------------------|----------------------------|
G ---------4-----------3--|---------2--5-5-5-5-5-5-5-5-|
D ------------------------|------------5-5-5-5-5-5-5-5-|
A ---3h5-x-------3h5-x----|---3h5-x----3-3-3-3-3-3-3-3-|
D 0-----------0-----------|0---------------------------|

  ========REPEAT=x4=======|=========REPEAT=x7======|
E ------------------------|------------------------|
B ------------------------|------------------------|
G 77----7-----------------|77-xx-7----xxx-xxx---xxx|
D 77----7-----------------|55-xx-5----xxx-xxx---xxx|
A 55----5-----------------|55-xx-5----xxx-xxx---xxx|
D ------------------------|------------------------|

E ------------------------|
B ------------------------|
G 77-xx-7--7--777777777777|
D 77-xx-7--7--777777777777|
A 55-xx-5--5--555555555555|
D ------------------------|

  =======REPEAT=x8========|
E ------------------------|
B ------------------------|
G 77---x7----x7-7------5--|
D 77---x7----x7-73--5--5--|
A 55---x5----x5-53--5--3--|
D ---------------3--5-----|

  ========REPEAT=x3========|                        |========REPEAT=x4========|
E -------------------------|------------------------|-------------------------|
B -------------------------|------------------------|-------------------------|
G -------------------------|--------------3-4-5--10~|-------------------------|
D ---------3s4-------------|--------3-4-5-----------|---------3s4-------------|
A ---3h5-x----5--0--2-3-2--|---3h5-x----------------|---3h5-x----5--0--2-3-2--|
D 0--------------0--2s3s2--|0-----------------------|0--------------0--2s3s2--|

 palm-mute 

E ------------------------|--------------------------|
B ------------------------|--------------------------|
G ---------4-----------3--|---------2----------------|
D ------------------------|--------------------------|
A ---3h5-x-------3h5-x----|---3h5-x-------2s3s2s3s2--|
D 0-----------0-----------|0-----------0--2s3s2s3s2--|

E ------------------------|----------------------------|
B ------------------------|----------------------------|
G ---------4-----------3--|---------2--5-5-5-5-5-5-5-5-|
D ------------------------|------------5-5-5-5-5-5-5-5-|
A ---3h5-x-------3h5-x----|---3h5-x----3-3-3-3-3-3-3-3-|
D 0-----------0-----------|0---------------------------|

  ========REPEAT=x4=======|=========REPEAT=x7======|
E ------------------------|------------------------|------------------------|
B ------------------------|------------------------|------------------------|
G 77----7-----------------|77-xx-7----xxx-xxx---xxx|77-xx-7--7--777777777777|
D 77----7-----------------|55-xx-5----xxx-xxx---xxx|77-xx-7--7--777777777777|
A 55----5-----------------|55-xx-5----xxx-xxx---xxx|55-xx-5--5--555555555555|
D ------------------------|------------------------|------------------------|

  =======REPEAT=x8========|
E ------------------------|
B ------------------------|
G 77---x7----x7-7------5--|
D 77---x7----x7-73--5--5--|
A 55---x5----x5-53--5--3--|
D ---------------3--5-----|

E --------------------------------------------------------------
B --------------------------------------------------------------
G 17--14--12--10--7---5----14----17--14--12--10--7---5---7------
D --15--12--10--8---5---3----------15--12--10--8---5---3--------
A --------------------------------------------------------------
D --------------------------------------------------------------

E --------------------------------------12~~13~~----------------
B ----------------------------------------------9~~~~-----------
G 10tr13---10tr13-----10tr8----10tr8----------------------------
D --------------------------------------------------------------
A --------------------------------------------------------------
D --------------------------------------------------------------

E ------------------------|------------------------|
B ------------------------|------------------------|
G 777777777777777777777777|999999999999999999999999|
D xxxxxxxxxxxxxxxxxxxxxxxx|xxxxxxxxxxxxxxxxxxxxxxxx|
A 555555555555555555555555|777777777777777777777777|
D 000000000000000000000000|000000000000000000000000|

E ------------------------------------------------|
B ------------------------------------------------|
G 101010101010101010101010101010101010101010101010|
D x-x-x-x-x-x-x-x-x-x-x-x-x-x-x-x-x-x-x-x-x-x-x-x-|
A 8-8-8-8-8-8-8-8-8-8-8-8-8-8-8-8-8-8-8-8-8-8-8-8-|
D 0-0-0-0-0-0-0-0-0-0-0-0-0-0-0-0-0-0-0-0-0-0-0-0-|

E ------------------------------------------------|
B ------------------------------------------------|
G 121212121212121212121212121212121212121212121212|
D x-x-x-x-x-x-x-x-x-x-x-x-x-x-x-x-x-x-x-x-x-x-x-x-|
A 101010101010101010101010101010101010101010101010|
D 0-0-0-0-0-0-0-0-0-0-0-0-0-0-0-0-0-0-0-0-0-0-0-0-|

E ------------------------------------------------|
B ------------------------------------------------|
G 141414141414141414141414141414141414141414141414|
D x-x-x-x-x-x-x-x-x-x-x-x-x-x-x-x-x-x-x-x-x-x-x-x-|
A 121212121212121212121212121212121212121212121212|
D 0-0-0-0-0-0-0-0-0-0-0-0-0-0-0-0-0-0-0-0-0-0-0-0-|

E ------------------------------------------------|
B ------------------------------------------------|
G 151515151515151515151515151515151515151515151515|
D x-x-x-x-x-x-x-x-x-x-x-x-x-x-x-x-x-x-x-x-x-x-x-x-|
A 131313131313131313131313131313131313131313131313|
D 0-0-0-0-0-0-0-0-0-0-0-0-0-0-0-0-0-0-0-0-0-0-0-0-|

E ------------------------------------------------|
B ------------------------------------------------|
G 171717171717171717171717171717171717171717171717|
D x-x-x-x-x-x-x-x-x-x-x-x-x-x-x-x-x-x-x-x-x-x-x-x-|
A 151515151515151515151515151515151515151515151515|
D 0-0-0-0-0-0-0-0-0-0-0-0-0-0-0-0-0-0-0-0-0-0-0-0-|

E ------------------------------------------------|
B ------------------------------------------------|
G --19----------19----------19----------19--------|
D --x-----------x-----------x-----------x---------|
A //17--------//17--------//17--------//17--------|
D 0-----------0-----------0-----------0-----------|

  =======REPEAT=x8========|========REPEAT=x4=======|
E ------------------------|------------------------|
B ------------------------|66---66-66-6-66-666-----|
G 77---x7----x7-7------5--|55---55-55-5-55-555-----|
D 77---x7----x7-73--5--5--|77---77-77-7-77-777-----|
A 55---x5----x5-53--5--3--|55---55-55-5-55-555-----|
D ---------------3--5-----|------------------------|

E ------------------------|------------------------|
B ------------------------|------------------------|
G 777777777777777777777777|777777777777777777777777|
D 777777777777777777777777|777777777777777777777777|
A 555555555555555555555555|555555555555555555555555|
D ------------------------|------------------------|

 

Soyez le premier à commenter

Poster un Commentaire

Votre adresse de messagerie ne sera pas publiée.




Time limit is exhausted. Please reload CAPTCHA.