Guitare pour Débutant

Vous débutez la guitare ou vous souhaitez progresser ?

Scorpions – Still loving you

Share Button

Toutes les tablatures sont ici  http://guitarepourdebutant.fr/tablatures-faciles/

Scorpions – Still loving you

                    
|---6--------6--------6------98-6--------6------------5--------------------|
|-----8--------8--------8----------8---8----8-------7-----7-----------------|
|-------7--------7--------7------------7------7-----5-------5---------------|
|-0------------------------------------8--------8---7---------7-------------|
|----------8--------6------------------6------------5-----------------------|
|---------------------------------------------------------------------------|

|---6--------6--------6------98-6--------6------------5--------------------|
|-----8--------8--------8----------8---8----8-------7-----7-----------------|
|-------7--------7--------7------------7------7-----5-------5---------------|
|-0------------------------------------8--------8---7-----------------------|
|----------8--------6------------------6------------5-----------------------|

|---------------------------------------------------------------------------|
-------------------------------------------6--6--------5-5------------------------------
------8---------8--------8-----------------8----8------7---7----------------------------
----7---------7--------7-----6-5h6p5-3-----7------7----5-----5~-------------------------
0-8---------8--------8-----------------5---8--------8-7--------------------------------
----------8--------6-----------------------6-----------5--------------------------------
----------------------------------------------------------------------------------------

|---3-----3-----3-|---3-----3-----3-|---3-----3-----3-|---3-----3-----3-|
|-----3-----3-----|-----3-----3-----|-----3-----3-----|-----3-----3-----|
|-------3-----3---|-------3-----3---|-------3-----3---|-------3-----3---|
|-----------------|-----------------|-----------------|-----------------|
|-----------------|-----------------|-----------------|-----------------|
|-3---------------|-3---------------|-3---------------|-3---------------|

|---0-----0-----0-|---0-----0-----0-|---2-----2-----2-|---2-----2-----2-|
|-----2-----2-----|-----2-----2-----|-----3-----3-----|-----3-----3-----|
|-------2-----2---|-------2-----2---|-------2-----2---|-------2-----2---|
|-----------------|-----------------|-0---------------|-0---------------|
|-0---------------|-0---------------|-----------------|-----------------|
|-----------------|-----------------|-----------------|-----------------|

|---3-----3-----3-|---3-----3-----3-|---3-----3-----3-|---3-----3-----3-|
|-----3-----3-----|-----3-----3-----|-----3-----3-----|-----3-----3-----|
|-------3-----3---|-------3-----3---|-------3-----3---|-------3-----3---|
|-----------------|-----------------|-----------------|-----------------|
|-----------------|-----------------|-----------------|-----------------|
|-3---------------|-3---------------|-3---------------|-3---------------|

                                  D
|---0-----0-----0-|---0-----0-----0-|---2-----2---2-3-|-2---------------|
|-----2-----2-----|-----2-----2-----|-----3-----3-----|-----------------|
|-------2-----2---|-------2-----2---|-------2---------|-----------------|
|-----------------|-----------------|-0---------------|-----------------|
|-0---------------|-0---------------|-----------------|-----------------|
|-----------------|-----------------|-----------------|-----------------|

|---6-----6-----6-|---6-----6-----6-|---6-----6-----6-|---6-----6-----6-|
|-----8-----8-----|-----8-----8-----|-----8-----8-----|-----8-----8-----|
|-------7-----7---|-------7-----7---|-------7-----7---|-------7-----7---|
|-0---------------|-0---------------|-0---------------|-0---------------|
|-----------------|-----------------|-----------------|-----------------|
|-----------------|-----------------|-----------------|-----------------|

|---9-----9-----9-|---9-----9-----9-|---2-----2-----2-|---2-----2-----2-|
|----10----10-----|----10----10-----|-----3-----3-----|-----3-----3-----|
|-9-----9-----9---|-------9-----9---|-------2-----2---|-------2-----2---|
|-----------------|11---------------|-0---------------|-0---------------|
|-----------------|-----------------|-----------------|-----------------|
|-----------------|-----------------|-----------------|-----------------|

|---6-----6-----6-|---6-----6-----6-|---6-----6-----6-|---6-----6-----6-|
|-----8-----8-----|-----8-----8-----|-----8-----8-----|-----8-----8-----|
|-------7-----7---|-------7-----7---|-------7-----7---|-------7-----7---|
|-0---------------|-0---------------|-0---------------|-0---------------|
|-----------------|-----------------|-----------------|-----------------|
|-----------------|-----------------|-----------------|-----------------|

|---9-----9-----9-|---9-----9-----9-|---2-----2---2-3-|-2---------------|
|----10----10-----|----10----10-----|-----3-----3-----|-----------------|
|-9-----9-----9---|-------9-----9---|-------2---------|-----------------|
|-----------------|11---------------|-0---------------|-----------------|
|-----------------|-----------------|-----------------|-----------------|
|-----------------|-----------------|-----------------|-----------------|

|---------------3-|---------------6-|---------------1-|---------------1-|
|---------------3-|-8-------8-----8-|-3-------3-----3-|---------------1-|
|-3-------3-----3-|-8-------8-----8-|-3-------3-----3-|-2-------2-----2-|
|-5-------5-------|-8-------8-------|-3-------3-------|-3-------3-------|
|-5-------5-------|-6-------6-------|-1-------1-------|-3-------3-------|
|-3-------3-------|-----------------|-----------------|-1-------1-------|

|---------------3-|---------------6-|---------------1-|---------------1-|
|---------------3-|-8-------8-----8-|-3-------3-----3-|---------------1-|
|-3-------3-----3-|-8-------8-----8-|-3-------3-----3-|-2-------2-----2-|
|-5-------5-------|-8-------8-------|-3-------3-------|-3-------3-------|
|-5-------5-------|-6-------6-------|-1-------1-------|-3-------3-------|
|-3-------3-------|-----------------|-----------------|-1-------1-------|

|---------------3-|---------------3-|-2-------2-----2-|---------------3-|
|---------------3-|-4-------4-----4-|-3-------3-----3-|---------------3-|
|-3-------3-----3-|-5-------5-----5-|-2-------2-----2-|-3-------3-----3-|
|-5-------5-------|-5-------5-------|-0-------0-------|-5-------5-------|
|-5-------5-------|-3-------3-------|-----------------|-5-------5-------|
|-3-------3-------|-----------------|-----------------|-3-------3-------|

|---------------6-|---------------6-|---------------1-|---------------1-|
|-8-------8-----8-|-8-------8-----8-|---------------1-|---------------1-|
|-8-------8-----8-|-8-------8-----8-|-2-------2-----2-|-2-------2-----2-|
|-8-------8-------|-8-------8-------|-3-------3-------|-3-------3-------|
|-6-------6-------|-6-------6-------|-3-------3-------|-3-------3-------|
|-----------------|-----------------|-1-------1-------|-1-------1-------|

e:-------------------------------------------------------------------------|
B:-----------------------------------------------------------------------13|
G:-----------5----------------------------------5-----5b(7)/12--14---15----|
D:--/5--7--8-----8--7--8--7--5--7/8--7--5--7--8-----8----------------------|
A:-------------------------------------------------------------------------|
E:-------------------------------------------------------------------------|

e:---------------------13-14b15--------------------------------------------|
B:-------------------------------15r13p11----11h13b___---------------------|
G:--15--14--15--12--15--------------------12-------------------------------|
D:-------------------------------------------------------------------------|
A:-------------------------------------------------------------------------|
E:-------------------------------------------------------------------------|

-----------------------------------------------------------------------------
-----------------------6-----------------------------------------------------
--------3~-------------5brbp3------------------------------------------------
-----3h5--5------------------5-3---------------------------------------------
--3h5------------------------------------------------------------------------
-----------------------------------------------------------------------------

accompagnement solo
|---------------3-|---------------6-|---------------1-|---------------1-|
|---------------3-|-8-------8-----8-|-3-------3-----3-|---------------1-|
|-3-------3-----3-|-8-------8-----8-|-3-------3-----3-|-2-------2-----2-|
|-5-------5-------|-8-------8-------|-3-------3-------|-3-------3-------|
|-5-------5-------|-6-------6-------|-1-------1-------|-3-------3-------|
|-3-------3-------|-----------------|-----------------|-1-------1-------|

solo
------------------------------------------------------------------------
------------------------------------------------15r13p11-10-------------
-------------------------------------3~---------------------------------
---17p1517p1517p1517--------------3h5--5--------------------------------
-------------------------------3h5--------------------------------------
------------------------------------------------------------------------

-20b22r20p18-20b22------------------------------------------------------
------------------------------------------------------------------------
------------------------------3-5brp3-5b~-------------------------------
---------------------------3h5------------------------------------------
------------------------3h5---------------------------------------------
------------------------------------------------------------------------

-----------------------------------18-20b20b-20-18-20-------------------
-18b~r18-15----18---------15-18-20--------------------------------------
------------17b--17br---------------------------------------------------
------------------------------------------------------------------------
------------------------------------------------------------------------
------------------------------------------------------------------------

------------------------------------20brp18-20b~----------18------------
-19b~-----------------20-18-20-18~----------------15-18h20---20p18-20p18
---------------20br-----------------------------------------------------
------17-19-20----------------------------------------------------------
------------------------------------------------------------------------
------------------------------------------------------------------------

-----------18-----------------------------------------------------------
--15-18h20----20p18-20p18-15-----18-15--15-18-15---15-18-15---15-18-15--
--------------------------------------17--------17---------17---------17
------------------------------------------------------------------------
------------------------------------------------------------------------
------------------------------------------------------------------------

---------------------------------------------------20b------------------
-15-18-18-18-18---18-15--15-18-15--15-18-15-18b-------------------------
-----------------------17--------17-------------------------------------
------------------------------------------------------------------------
------------------------------------------------------------------------
------------------------------------------------------------------------

------------------------------------------------------------------------
--------18--------------------------------------------------------------
---19-20---20p19p17-19---17-19-20-19-17b--17p15--15h17p15--15h17p15--15h
-----------------------20----------------------17--------17--------17---
------------------------------------------------------------------------
------------------------------------------------------------------------

------------------------------------------------------------------------
------------18----------------------------------------------------------
17p15--1517b--17b-------------------------------------------------------
-----17-----------------------------------------------------------------
-------------------15p14p1315p14p1315p14p1315p14p13--13h15p13--13h15p13-
---------------------------------------------------15--------15---------

------------------------------------------------------------------------
--------------------------------------------------18b20-----------------
--------------------------------------------10~-----------------20b-20--
------------------------------------10h11h12-----------17-19-20---------
--13h15p13--13h15p13--------10h11h12------------------------------------
15--------15--------10h11h13---------------------------------

------------------------------------------------------------------------
-20-18-20-18~-----------------------------------------------------------
--------------17-15-14-12-11h12-14-12-----------------------------------
------------------------------------------------------------------------
------------------------------------------------------------------------
------------------------------------------------------------------------

------------------------------------------------------------------------
-15h16p15~-15h16p15~-15h16p15~-15h16p15h16p15h16p15etc...--18b20--------
------------------------------------------------------------------------
------------------------------------------------------------------17-19-
------------------------------------------------------------------------
------------------------------------------------------------------------

--------------------------------------------!----------------------------
--------20-18-20---------------------------.!---------------------------
--20b20----------17-15-14-12-11h12-14-12----!---------------------------
20------------------------------------------!---------------------------
-------------------------------------------.!---------------------------
--------------------------------------------!---------------------------

Liens commerciaux

Archives

Lien commerciaux

Copyright © 2017 Guitare pour Débutant

En poursuivant votre navigation sur ce site, vous acceptez l'utilisation de cookies ou autres traceurs pour vous proposer des publicités ciblées, adaptées à vos centres d'intérêts, améliorer le fonctionnement du site et réaliser des statistiques de visites. Pour en savoir plus et paramétrer les cookies, cliquez ici. Plus d'info

Les paramètres des cookies sur ce site sont définis sur « accepter les cookies » pour vous offrir la meilleure expérience de navigation possible. Si vous continuez à utiliser ce site sans changer vos paramètres de cookies ou si vous cliquez sur "Accepter" ci-dessous, vous consentez à cela.

Fermer