Shaka Ponk : Palabra mi amor

Share Button
Shaka Ponk : Palabra mi amor
Imprimer cette tablature Imprimer cette tablature

Riff Refrain 

Solo
|--------------------------------------------------------------------|
|--------------------------------------------------------------------|
|-10-x-x-10-x-x-10-x-x-10-x-10-x-8~~----10-8-------------------------| x2
|--------------------------------------------10-8-8-6-8-b8-6-------6-|
|------------------------------------------------------------8-6-8---|
|--------------------------------------------------------------------|

|---------------------------------------------------------------|
|-------9-------------9-------------9---------------------------|
|-8-8-8-8--10-8-10-8--8--10-8-10-8--8--10-8-10------------------|
|----------------------------------------------6-8-b8-6-------6-|
|-------------------------------------------------------8-6-8---|
|---------------------------------------------------------------|

|---------------------------------------------------------------------------------------------------------------------------------------|
|-------9-------------9-------------9----------9-11--9/11-9/11b13-9/11-9/11b13-9/11-9/11b13-9/11b13-9/11-9/11b13-9/11-9/11b13-9/11b13-9-|
|-8-8-8-8--10-8-10-8--8--10-8-10-8--8--10-8-10------------------------------------------------------------------------------------------|
|---------------------------------------------------------------------------------------------------------------------------------------|
|---------------------------------------------------------------------------------------------------------------------------------------|
|---------------------------------------------------------------------------------------------------------------------------------------|

|------------------------------------16--------------------------------|
|-9---8--11--9---13--11--14--13--16--16--------------------------------|
|-10--8--12--10--13--12--15--13--17--17--17--17---17----17-----15~~~~~-|
|----------------------------------------------------------------------|
|----------------------------------------------------------------------|
|----------------------------------------------------------------------|

|-11-8-6-8-11-8-6- - - tapping ----
|--------------------------------descente pentatonique --
|----------------------------------
|----------------------------------
|----------------------------------
|----------------------------------

Soyez le premier à commenter

Poster un Commentaire

Votre adresse de messagerie ne sera pas publiée.




Time limit is exhausted. Please reload CAPTCHA.