Sting : Shape Of My Heart

Share Button
Imprimer cette tablature Imprimer cette tablature

Toutes les tablatures sont ici :  http://guitarepourdebutant.fr/tablatures-faciles/

Sting – Shape Of My Heart

e|--------------|-----------|-------------|-------------|
B|--10------10--|--9------9-|---7------7--|---7-------6-|
G|--------6-----|-------6---|--------4----|---4----4--4-|
D|--------------|-----------|-------------|-------------|
A|--9--9--------|--7--7-----|---5--5------|---4--4----4-|
E|--------------|-----------|-------------|-------------|

|--------------|-------------|-------------|-------------|
|--10------10--|---9------9--|---7------7--|---7-------6-|
|--------7-----|--------6----|--------4----|---4----4--4-|
|--------------|-------------|-------------|-------------|
|--9--9--------|---7--7------|---5--5------|---4--4----4-|
|--------------|-------------|-------------|-------------|

|---------5----|----------------|---------------|---------|
|-----7-----7--|--5----5------6-|--7-5---2------|---2-----|
|---4---4------|--2h4--2-2------|--7--7--4--4-2-|---2-----|
|--------------|-------------6--|---------------|---4-----|
|--5-----------|-----------4----|--5-----2------|---4-----|
|--------------|--5----5--------|---------------|---2-----|

e|--------------|-----------|-------------|-------------|
B|--10------10--|--9------9-|---7------7--|---7-------6-|
G|--------6-----|-------6---|--------4----|---4----4--4-|
D|--------------|-----------|-------------|-------------|
A|--9--9--------|--7--7-----|---5--5------|---4--4----4-|
E|--------------|-----------|-------------|-------------|

|--------------|-------------|-------------|-------------|
|--10------10--|---9------9--|---7------7--|---7-------6-|
|--------7-----|--------6----|--------4----|---4----4--4-|
|--------------|-------------|-------------|-------------|
|--9--9--------|---7--7------|---5--5------|---4--4----4-|
|--------------|-------------|-------------|-------------|

|---------5----|----------------|---------------|---------|
|-----7-----7--|--5----5------6-|--7-5---2------|---2-----|
|---4---4------|--2h4--2-2------|--7--7--4--4-2-|---2-----|
|--------------|-------------6--|---------------|---4-----|
|--5-----------|-----------4----|--5-----2------|---4-----|
|--------------|--5----5--------|---------------|---2-----|

e|--------------|-----------|-------------|-------------|
B|--10------10--|--9------9-|---7------7--|---7-------6-|
G|--------6-----|-------6---|--------4----|---4----4--4-|
D|--------------|-----------|-------------|-------------|
A|--9--9--------|--7--7-----|---5--5------|---4--4----4-|
E|--------------|-----------|-------------|-------------|

|--------------|-------------|-------------|-------------|
|--10------10--|---9------9--|---7------7--|---7-------6-|
|--------7-----|--------6----|--------4----|---4----4--4-|
|--------------|-------------|-------------|-------------|
|--9--9--------|---7--7------|---5--5------|---4--4----4-|
|--------------|-------------|-------------|-------------|

|---------5----|----------------|---------------|---------|
|-----7-----7--|--5----5------6-|--7-5---2------|---2-----|
|---4---4------|--2h4--2-2------|--7--7--4--4-2-|---2-----|
|--------------|-------------6--|---------------|---4-----|
|--5-----------|-----------4----|--5-----2------|---4-----|
|--------------|--5----5--------|---------------|---2-----|

e|--------------|-----------|-------------|-------------|
B|--10------10--|--9------9-|---7------7--|---7-------6-|
G|--------6-----|-------6---|--------4----|---4----4--4-|
D|--------------|-----------|-------------|-------------|
A|--9--9--------|--7--7-----|---5--5------|---4--4----4-|
E|--------------|-----------|-------------|-------------|

|--------------|-------------|-------------|-------------|
|--10------10--|---9------9--|---7------7--|---7-------6-|
|--------7-----|--------6----|--------4----|---4----4--4-|
|--------------|-------------|-------------|-------------|
|--9--9--------|---7--7------|---5--5------|---4--4----4-|
|--------------|-------------|-------------|-------------|

|---------5----|----------------|---------------|---------|
|-----7-----7--|--5----5------6-|--7-5---2------|---2-----|
|---4---4------|--2h4--2-2------|--7--7--4--4-2-|---2-----|
|--------------|-------------6--|---------------|---4-----|
|--5-----------|-----------4----|--5-----2------|---4-----|
|--------------|--5----5--------|---------------|---2-----|

e|--------------|-----------|-------------|-------------|
B|--10------10--|--9------9-|---7------7--|---7-------6-|
G|--------6-----|-------6---|--------4----|---4----4--4-|
D|--------------|-----------|-------------|-------------|
A|--9--9--------|--7--7-----|---5--5------|---4--4----4-|
E|--------------|-----------|-------------|-------------|

|--------------|-------------|-------------|-------------|
|--10------10--|---9------9--|---7------7--|---7-------6-|
|--------7-----|--------6----|--------4----|---4----4--4-|
|--------------|-------------|-------------|-------------|
|--9--9--------|---7--7------|---5--5------|---4--4----4-|
|--------------|-------------|-------------|-------------|

|---------5----|----------------|---------------|---------|
|-----7-----7--|--5----5------6-|--7-5---2------|---2-----|
|---4---4------|--2h4--2-2------|--7--7--4--4-2-|---2-----|
|--------------|-------------6--|---------------|---4-----|
|--5-----------|-----------4----|--5-----2------|---4-----|
|--------------|--5----5--------|---------------|---2-----|

e|--------------|-----------|-------------|-------------|
B|--10------10--|--9------9-|---7------7--|---7-------6-|
G|--------6-----|-------6---|--------4----|---4----4--4-|
D|--------------|-----------|-------------|-------------|
A|--9--9--------|--7--7-----|---5--5------|---4--4----4-|
E|--------------|-----------|-------------|-------------|

|--------------|-------------|-------------|-------------|
|--10------10--|---9------9--|---7------7--|---7-------6-|
|--------7-----|--------6----|--------4----|---4----4--4-|
|--------------|-------------|-------------|-------------|
|--9--9--------|---7--7------|---5--5------|---4--4----4-|
|--------------|-------------|-------------|-------------|

|---------5----|----------------|---------------|---------|
|-----7-----7--|--5----5------6-|--7-5---2------|---2-----|
|---4---4------|--2h4--2-2------|--7--7--4--4-2-|---2-----|
|--------------|-------------6--|---------------|---4-----|
|--5-----------|-----------4----|--5-----2------|---4-----|
|--------------|--5----5--------|---------------|---2-----|

|-----------2--|------------|-------------|------------|-----------|
|--2--2--3--2--|------------|-------------|------------|-----------|
|--2--2--2--4--|--9-----9---|--8------8---|--6------6--|--6--5-----|
|--4--4--0--4--|------7-----|-------6-----|-------4----|--4--4-----|
|--4--4--0--4--|------------|-------------|------------|-----------|
|--2--2-----2--|--9--9------|--7--7-------|--5--5------|--4--4-----|

|------------|-------------|------------|-----------|
|------------|-------------|------------|-----------|
|--9-----9---|--8------8---|--6------6--|--6--5-----|
|------7-----|-------6-----|-------4----|--4--4-----|
|------------|-------------|------------|-----------|
|--9--9------|--7--7-------|--5--5------|--4--4-----|

|-------------|---------------|--4--4--4-------------|
|---------5---|---------------|--4--5--5---5---4---5-|
|-----6-----6-|-----1----5--6-|--6--6--4---6---6---6-|
|---4---4-----|---2----6----7-|--6--6--6---7---4---7-|
|-------------|-------------7-|--6--4--4---7---6-----|
|--5----------|--0----4-----5-|--4---------5---4-----|

e|--------------|-----------|-------------|-------------|
B|--10------10--|--9------9-|---7------7--|---7-------6-|
G|--------6-----|-------6---|--------4----|---4----4--4-|
D|--------------|-----------|-------------|-------------|
A|--9--9--------|--7--7-----|---5--5------|---4--4----4-|
E|--------------|-----------|-------------|-------------|

|--------------|-------------|-------------|-------------|
|--10------10--|---9------9--|---7------7--|---7-------6-|
|--------7-----|--------6----|--------4----|---4----4--4-|
|--------------|-------------|-------------|-------------|
|--9--9--------|---7--7------|---5--5------|---4--4----4-|
|--------------|-------------|-------------|-------------|

|---------5----|----------------|---------------|---------|
|-----7-----7--|--5----5------6-|--7-5---2------|---2-----|
|---4---4------|--2h4--2-2------|--7--7--4--4-2-|---2-----|
|--------------|-------------6--|---------------|---4-----|
|--5-----------|-----------4----|--5-----2------|---4-----|
|--------------|--5----5--------|---------------|---2-----|

e|--------------|-----------|-------------|-------------|
B|--10------10--|--9------9-|---7------7--|---7-------6-|
G|--------6-----|-------6---|--------4----|---4----4--4-|
D|--------------|-----------|-------------|-------------|
A|--9--9--------|--7--7-----|---5--5------|---4--4----4-|
E|--------------|-----------|-------------|-------------|

|--------------|-------------|-------------|-------------|
|--10------10--|---9------9--|---7------7--|---7-------6-|
|--------7-----|--------6----|--------4----|---4----4--4-|
|--------------|-------------|-------------|-------------|
|--9--9--------|---7--7------|---5--5------|---4--4----4-|
|--------------|-------------|-------------|-------------|

|---------5----|----------------|---------------|---------|
|-----7-----7--|--5----5------6-|--7-5---2------|---2-----|
|---4---4------|--2h4--2-2------|--7--7--4--4-2-|---2-----|
|--------------|-------------6--|---------------|---4-----|
|--5-----------|-----------4----|--5-----2------|---4-----|
|--------------|--5----5--------|---------------|---2-----|

e|--------------|-----------|-------------|-------------|
B|--10------10--|--9------9-|---7------7--|---7-------6-|
G|--------6-----|-------6---|--------4----|---4----4--4-|
D|--------------|-----------|-------------|-------------|
A|--9--9--------|--7--7-----|---5--5------|---4--4----4-|
E|--------------|-----------|-------------|-------------|

|--------------|-------------|-------------|-------------|
|--10------10--|---9------9--|---7------7--|---7-------6-|
|--------7-----|--------6----|--------4----|---4----4--4-|
|--------------|-------------|-------------|-------------|
|--9--9--------|---7--7------|---5--5------|---4--4----4-|
|--------------|-------------|-------------|-------------|

|---------5----|----------------|---------------|---------|
|-----7-----7--|--5----5------6-|--7-5---2------|---2-----|
|---4---4------|--2h4--2-2------|--7--7--4--4-2-|---2-----|
|--------------|-------------6--|---------------|---4-----|
|--5-----------|-----------4----|--5-----2------|---4-----|
|--------------|--5----5--------|---------------|---2-----|

|-----------2--|-----------2--|
|--2--2--3--2--|--2--2--3--2--|
|--2--2--2--4--|--2--2--2--4--|
|--4--4--0--4--|--4--4--0--4--|
|--4--4--0--4--|--4--4--0--4--|
|--2--2-----2--|--2--2-----2--|

e|--------------|-----------|-------------|-------------|
B|--10------10--|--9------9-|---7------7--|---7-------6-|
G|--------6-----|-------6---|--------4----|---4----4--4-|
D|--------------|-----------|-------------|-------------|
A|--9--9--------|--7--7-----|---5--5------|---4--4----4-|
E|--------------|-----------|-------------|-------------|

|------------|-----------|-----------|-------2----|
|--4-----4---|--2------2-|--2-----2--|---6---2----|
|------------|-----------|-----------|---4---2----|
|-------3----|-------2---|-------4---|---6---6----|
|--2--2------|--0--0-----|-----------|---4---4----|
|------------|-----------|--4--4-----|-------2----|

Soyez le premier à commenter

Poster un Commentaire

Votre adresse de messagerie ne sera pas publiée.




Time limit is exhausted. Please reload CAPTCHA.