Sum 41 : thank for nothing

Share Button

Sum 41  : thank for nothing
Toutes les tablatures sont ici  http://guitarepourdebutant.fr/tablatures-faciles/

e|-------------------------------------------------------|
B|-------------------------------------------------------|
G|---7-7-xx--1-1-xx----------5-5-xx----------------------|
D|---7-7-xx--1-1-xx--1-1-xx--5-5-xx----------------------|
A|---5-5-xx--3-3-xx--1-1-xx--3-3-xx----------------------|
E|-------------------3-3-xx------------------------------|

e|-------------------------------------------------------| 
B|-------------------------------------------------------|  
G|---7-7-xx--1-1-xx----------5---------------------------|
D|---7-7-xx--1-1-xx--1-1-xx--5---------------------------|
A|---5-5-xx--3-3-xx--1-1-xx--3---------------------------|
E|-------------------3-3-xx------------------------------|

e|------------------------------------------------------------| x2
B|------------------------------------------------------------|
G|------------------------------------------------------------|
D|---0-2-33------2-33-----2-33-3--5/3-2---------------------|
A|-----------11--------------------------3--------------------|
E|---------------------1--------------------------------------|

e|--------------------------------------------------------------| x2
B|--------------------------------------------------------------|
G|---7---3-3-------5--------------------------------------------|
D|---7---3-3---3---5--------------------------------------------|
A|---5---1-1---3---3-333----------------------------------------|
E|-------------1------------------------------------------------|

e|----------------------------------------------------| x2 
B|----------------------------------------------------|     
G|---7-7-1-1-----5-5----------------------------------|
D|---7-7-1-1-1-1-5-5----------------------------------|
A|---5-5-3-3-1-1-3-3----------------------------------|
E|-----------3-3--------------------------------------|

e|--------------------------------------------------------------| x2
B|--------------------------------------------------------------|
G|---7-7-7-7-3-3-3-3---------5-5-3-5----------------------------|
D|---7-7-7-7-3-3-3-3-3-3-3-3-5-5-3-5----------------------------|
A|---5-5-5-5-1-1-1-1-3-3-3-3-3-3-1-3----------------------------|
E|-------------------1-1-1-1------------------------------------|

e|------------------------------------------------------------| x2 
B|------------------------------------------------------------|
G|------------------------------------------------------------|
D|---0-2-33------2-33----2-33-3--5/3-2----------------------|
A|-----------11--------------------------3--------------------|
E|---------------------1--------------------------------------|

e|--------------------------------------------------------------| x2 
B|--------------------------------------------------------------|
G|---7---3-3-------5--------------------------------------------|
D|---7---3-3---3---5--------------------------------------------|
A|---5---1-1---3---3-333----------------------------------------|
E|-------------1------------------------------------------------|
                     ...
e|----------------------------------------------------| x2 
B|----------------------------------------------------|
G|---7-7-1-1-----5-5----------------------------------|
D|---7-7-1-1-1-1-5-5----------------------------------|
A|---5-5-3-3-1-1-3-3----------------------------------|
E|-----------3-3--------------------------------------|

e|--------------------------------------------------------------| x2
B|--------------------------------------------------------------|
G|---7-7-7-7-3-3-3-3---------5-5-3-5----------------------------|
D|---7-7-7-7-3-3-3-3-3-3-3-3-5-5-3-5----------------------------|
A|---5-5-5-5-1-1-1-1-3-3-3-3-3-3-1-3----------------------------|
E|-------------------1-1-1-1------------------------------------|

e|----------------------------------------------------------| x2
B|----------------------------------------------------------|
G|---7--7--10/5------------------------------------------|
D|---7--7---8/5--5--3------------------------------------|
A|---5--58----8/3--5--3------------------------------------|
E|------------------3--1------------------------------------|

e|-----------------------------------------------------------------|
B|-----------------------------------------------------------------|
G|-----------------------------------------------------------------|
D|----------------------------------------------5-----5------------|
A|---0-0-5h7-8p7--0-0-10p8-7h8--0-0-5h7-8p7--5-5---5-5-------------|
E|-----------------------------------------------------------------|
                                             . .   . .
e|-------------------------------------------------------------------|
B|-------------------------------------------------------------------|
G|-------------------------------------------------------------------|
D|--------------------------------------------2-2-2--3-3-3-----------|
A|---0-0-5h7-8p7--0-0-10p8-7h8--0-0-5h7-8p7---2-2-2--3-3-3-----------|
E|------------------------------------------- 0-0-0--1-1-1-----------|
                                              . . .  . . .
e|-----------------------------------------------------------------|
B|-----------------------------------------------------------------|
G|-----------------------------------------------------------------|
D|----------------------------------------------5-----5------------|
A|---0-0-5h7-8p7--0-0-10p8-7h8--0-0-5h7-8p7--5-5---5-5-------------|
E|-----------------------------------------------------------------|
                                             . .   . .
e|---------------------------------------------------------------|
B|---------------------------------------------------------------|
G|-------------------------------------------3-5-----------------|
D|-------------------------------------------3-5-----------------|
A|---0-0-5h7-8p7--0-0-10p8-7h8--0-0-5h7-8p7--1-3-----------------|
E|---------------------------------------------------------------|

e|--------------------------------------------------------------| x2
B|--------------------------------------------------------------|
G|---7-7-7-7-3-3-3-3---------5-5-3-5----------------------------|
D|---7-7-7-7-3-3-3-3-3-3-3-3-5-5-3-5----------------------------|
A|---5-5-5-5-1-1-1-1-3-3-3-3-3-3-1-3----------------------------|
E|-------------------1-1-1-1------------------------------------|

e|-------------------------------------------------------------| x4
B|-------------------------------------------------------------|
G|-------------------------------------------------------------|
D|---0-2-33------2-33-----2-33-3--5/3-2----------------------|
A|-----------11---------------------------3--------------------|
E|---------------------1---------------------------------------|

e|-----| 
B|-----|
G|-----|
D|--3--|
A|--3--|
E|--1--|