Gotye : Somebody That I Used to Know

Share Button



Imprimer cette tablature Imprimer cette tablature

Gotye : Somebody That I Used to Know
Toutes les tablatures sont ici  http://guitarepourdebutant.fr/tablatures-faciles/



e ----------------------------|
B ----------------------------|
G ----------------------------|
D -----x----x-x---x----x-x----|
A ----12----x-x---10---x-x----|
E ----10----x-x---8----x-x----|

e ----------------------------|
B ----------------------------|
G ----x----x-x----x----x-x----|
D ----7----x-x----5----x-x----|
A ----5----x-x----3----x-x----|
E ----------------------------|

e -------------------------------|
B -------------10-11-13-10-------|
G -------12-12-------------12-12-|
D -12-12-------------------------|
A -------------------------------|
E -------------------------------|

e ---------------------|
B ---------------------|
G -10-10-9-9-----------|
D -----------12-12--10-|
A ---------------------|
E ---------------------|

e -------------------------------|
B -------------10-11-13-10-------|
G -------12-12-------------12-12-|
D -12-12-------------------------|
A -------------------------------|
E -------------------------------|

e -------------------------0--|
B ------------------------15--|
G ------------------------14--|
D --12-12---14---12-12----12--|
A ----------------------------|
E ----------------------------|

e ----------------------------|
B ------------13--------------|
G --14~----------14--12-------|
D ----------------------12----|
A ----------------------------|
E ----------------------------|

e ----------------------------|
B ------------13--------------|
G --------14-----14--12-------|
D --14-12--------------12-12--|
A ----------------------------|
E ----------------------------|

e --------------------------------------------|
B --------------------------------------------|
G --14~--------14~-------14~-12~-12~\10---14~-|
D -----14b\12~----14b\10~--------------12-----|
A --------------------------------------------|
E --------------------------------------------|

Dm      C       Bb      C

e ----------------------------------------|
B ----------------------------------------|
G ----------------------------------------|
D ---x--x--x--x--x--x--x--x--x--x---x--x--|
A --12--x--x--10-x--x--8--x--x--10--x--x--|
E --10--x--x--8--x--x--6--x--x--8---x--x--|

e ------------------|----------------------------|
B ----13------------|-------13-------------------|
G --14--12-14-------|--12-14--12-14--12---12-14--|
D ------------15----|------------------10--------|
A --------------15--|----------------------------|
E ------------------|----------------------------|

e ----------------------------|
B ------------13--------------|
G --14-----------14--12-------|
D ----------------------12----|
A ----------------------------|
E ----------------------------|

e ----------------------------|
B ------------13--------------|
G --------14-----14--12-------|
D --14-12--------------12-12--|
A ----------------------------|
E ----------------------------|

e ---------------|-----------|--------------------|
B ---------------|--13-------|----------13--------|
G --------14-12--|----14-12--|----14-12----14-12--|
D --14-12--------|-----------|--14----------------|
A ---------------|-----------|--------------------|
E ---------------|-----------|--------------------|

Soyez le premier à commenter

Poster un Commentaire

Votre adresse de messagerie ne sera pas publiée.




Time limit is exhausted. Please reload CAPTCHA.