Metallica Master Of Puppets

Share Button

 

Metallica Master Of Puppets

Imprimer cette tablature Imprimer cette tablature

Toutes les tablatures sont ici http://guitarepourdebutant.fr/tablatures-faciles/

 

|--------------------------------|
|--------------------------------|
|-9--------7---6---5-------------|
|-9--------7---6---5-------------|
|-7--------5---4---3-------------|
|-0------------------------------|

|--------------------------------------------------------------------|
|--------------------------------------------------------------------|
|--------------------7---6---5---------------------------------------|
|--------------------7---6---5---------------------------------------|
|-----7-----6--------5---4---3---------------------------------------|
|-0-0---0-0---0-0---------------------0-0-7-0-0-6-0-0-5-0-4-0-3-0-2--|

|--------------------------------------------------------------------|
|--------------------------------------------------------------------|
|--------------------------------------------------------------------|
|--------------------------------------------------------------------|
|-----2-----3-----4-----3-----2-2-----2-----3------5\4---5\4---5\4---|
|-0-1---0-1---0-1---0-1---0-1-----0-1---0-1---0-0--3\2-0-3\2-0-3\2---|

|--------------------------------------------------------------------|
|--------------------------------------------------------------------|
|-------------------------------------------------------------4------|
|-------------------------------------------------------------4------|
|-----2-----3-----4-----3-----2-2-----2-----3-----4-----3-----2------|
|-0-1---0-1---0-1---0-1---0-1-----0-1---0-1---0-1---0-1---0-1--------|

|--------------------------------------------------------------------|
|--------------------------------------------------------------------|
|--------------------------------------------------------------------|
|--------------------------------------------------------------------|
|-----2-----3-----4-----3-----2-2-----2-----3------5\4---5\4---5\4---|
|-0-1---0-1---0-1---0-1---0-1-----0-1---0-1---0-0--3\2-0-3\2-0-3\2---|

|--------------------------------------------------------------------|
|--------------------------------------------------------------------|
|-------------------------------------------------------------4------|
|-------------------------------------------------------------4------|
|-----2-----3-----4-----3-----2-2-----2-----3-----4-----3-----2------|
|-0-1---0-1---0-1---0-1---0-1-----0-1---0-1---0-1---0-1---0-1--------|

|--------------------------------------------------------------------|
|--------------------------------------------------------------------|
|--------------------------------------------------------------------|
|--------------------------------------------------------------------|
|-----2-----3-----4-----3-----2-2-----2-----3------5\4---5\4---5\4---|
|-0-1---0-1---0-1---0-1---0-1-----0-1---0-1---0-0--3\2-0-3\2-0-3\2---|

|--------------------------------------------------------------------|
|--------------------------------------------------------------------|
|--------------------------------------------------------------------|
|------------------2------8------8------8------8------8v-------------|
|-5\4---5\4---5\4--2----7------7------7------7------7----------------|
|-3\2-0-3\2-0-3\2--0--0------0------0------0------0------------------|

|--------------------------------------------------------------------|
|--------------------------------------------------------------------|
|--------------------------------------------------------------------|
|--------------------------------------------------------------------|
|-----------------5/7--8\7--5/7------------------5/7--5/7------------|
|-0-0-0-0-0-0-0-0-3/5--6\5--3/5--0-0-0-0-0-0-0-0-3/5--3/5------------|

|--------------------------------------------------------------------|
|--------------------------------------------------------------------|
|--------------------------------------------------------------------|
|------------------4-4--5\4-4-4-------------------4---4--------------|
|------------------0-2--3\2-0-2-------------------0h2-0h2------------|
|-2-2-2-2-2-2-2-2----------------2-2-2-2-2-2-2-2---------------------|

|-------------------|
|-------------------|
|-4-4-4-4-4-4-4-4---|
|-4-4-4-4-4-4-4-4---|
|-2-2-2-2-2-2-2-2---|
|-------------------|

|--------------------------------------------------------------------|
|--------------------------------------------------------------------|
|-9-------7--9------------------------------------------8------------|
|-9-------7--9------9------------------10--9------------8--9---------|
|-7-------5--7--7-9---10-9h10----------10--9------------6--9---------|
|-0-0-0-0----------------------8-8-8-8-8---7----8-8-8-8----7---------|

|--------------------------------------------------------------------|
|--------------------------------------------------------------------|
|-9-------7--9-------------------------------------------------------|
|-9-------7--9------9------------------10--9----------------2-2---3-3|
|-7-------5--7--7-9---10-9h10----------10--9--9-7-6--6------2-2---1-1|
|-0-0-0-0----------------------8-8-8-8-8---7-----------8-7--0-0---1-1|

|--------------------------------------------------------------------|
|--------------------------------------------------------------------|
|------------------------------------------------------------------5-|
|-------------------5------4-----2---7------5-----4----------9-----5-|
|-2------4------5---3--0-0-2-0-0-0---5------3-----2---2------7-----3-|
|-0--0-0-2--0-0-3-----------------------0-0---0-0-----0--0-0---0-0---|

|--------------------------------------------------------------------|
|--------------------------------------------------------------------|
|----------------------------------5---------------------------------|
|-2--2----3--3---------------7-----5---------------------------------|
|-2--2----3--3--------2------5-----3--------2--2----3--3-------------|
|-0--0----1--1--------0--0-0---0-0----------0--0----1--1-------------|

|--------------------------------------------------------------------|
|--------------------------------------------------------------------|
|-------------------------------------------------------------4------|
|-------------------------------------------------------------4------|
|-----2-----3-----4-----3-----2-2-----2-----3-----4-----3-----2------|
|-0-1---0-1---0-1---0-1---0-1-----0-1---0-1---0-1---0-1---0-1--------|

|--------------------------------------------------------------------|
|--------------------------------------------------------------------|
|--------------------------------------------------------------------|
|--------------------------------------------------------------------|
|-----2-----3-----4-----3-----2-2-----2-----3------5\4---5\4---5\4---|
|-0-1---0-1---0-1---0-1---0-1-----0-1---0-1---0-0--3\2-0-3\2-0-3\2---|

|-------------------|
|-------------------|
|-------------------|
|-------------------|
|-5\4---5\4---5\4---|
|-3\2-0-3\2-0-3\2---|

|--------------------------------------------------------------------|
|--------------------------------------------------------------------|
|--------------------------------------------------------------------|
|--------------------------------------------------------------------|
|-----------------5/7--8\7--5/7------------------5/7--5/7------------|
|-0-0-0-0-0-0-0-0-3/5--6\5--3/5--0-0-0-0-0-0-0-0-3/5--3/5------------|

|--------------------------------------------------------------------|
|--------------------------------------------------------------------|
|--------------------------------------------------------------------|
|------------------4-4--5\4-4-4-------------------4---4--------------|
|------------------0-2--3\2-0-2-------------------0h2-0h2------------|
|-2-2-2-2-2-2-2-2----------------2-2-2-2-2-2-2-2---------------------|

|-------------------|
|-------------------|
|-4-4-4-4-4-4-4-4---|
|-4-4-4-4-4-4-4-4---|
|-2-2-2-2-2-2-2-2---|
|-------------------|

Soyez le premier à commenter

Poster un Commentaire

Votre adresse de messagerie ne sera pas publiée.




Time limit is exhausted. Please reload CAPTCHA.