Téléphone : ça, C’est Vraiment Toi

Share Button
Imprimer cette tablature Imprimer cette tablature

Toutes les tablatures sont ici  http://guitarepourdebutant.fr/tablatures-faciles/

Téléphone – Ça, C’est Vraiment Toi

Intro:

e |---- ---- ---- ---- |---- ---- ---- ---- |
B |---- ---- ---- ---- |---- ---- ---- ---- |
G |---- ---- ---- --2- |---- ---- ---- ---- |
D |---- ---- 0-0- 4--- |---- --2- ---- 4-2- |
A |---- --2- ---- ---- |0-0- 4--- 2-2- ---- |
E |0-0- 4--- ---- ---- |---- ---- ---- ---- |x4

e |---- ---- ---- ---- |---- 0-0- 0-0- ---- |---- ---- ---- ---- |---- ---- ---- ---- |
B |---- ---- ---- ---- |---- 2-2- 2-2- ---- |---- ---- ---- ---- |---- ---- ---- ---- |
G |---- ---- ---- ---- |---- 2-2- 2-2- ---- |---- ---- ---- --2- |---- ---- ---- ---- |
D |---- ---- ---- ---- |---- 2-2- 2-2- ---- |---- ---- 0-0- 4--- |---- --2- ---- 4-2- |
A |---- ---- ---- ---- |---- 0-0- 0-0- ---- |---- --2- ---- ---- |0-0- 4--- 2-2- ---- |
E |0--- ---- ---- ---- |---- 0-0- 0-0- ---- |0-0- 4--- ---- ---- |---- ---- ---- ---- |x4

e |0--- ---- ---- ---- |---- ---- ---- ---- |
B |0--- ---- ---- ---- |---- ---- ---- ---- |
G |1--- ---- ---- ---- |---- ---- ---- ---- |
D |2--- ---- ---- ---- |---- ---- ---- ---- |
A |2--- ---- ---- ---- |---- ---- ---- ---- |
E |0--- ---- ---- ---- |---- ---- ---- ---- |x4  

Refrain: x4

e |2--- ---- ---- ---- |0--- ---- 2--- ---- |0--- ---- ---- 0-2- |---- ---- ---- ---- |
B |2--- ---- ---- ---- |2--- ---- 4--- ---- |0--- ---- ---- 0-2- |---- ---- ---- ---- |
G |3--- ---- ---- ---- |2--- ---- 4--- ---- |1--- ---- ---- 1-3- |---- ---- ---- ---- |
D |4--- ---- ---- ---- |2--- ---- 4--- ---- |2--- ---- ---- 2-4- |---- ---- ---- ---- |
A |4--- ---- ---- ---- |0--- ---- 2--- ---- |2--- ---- ---- 2-4- |---- ---- ---- ---- |
E |2--- ---- ---- ---- |0--- ---- 2--- ---- |0--- ---- ---- 0-2- |---- ---- ---- ---- |
   Barré                -         Barré      -              - Barré

e |0--- ---- 2--- ---- |0-x- ---- ---- ---- |---- ---- ---- ---- |
B |2--- ---- 4--- ---- |0-x- ---- ---- ---- |---- ---- ---- ---- |
G |2--- ---- 4--- ---- |1-x- ---- ---- ---- |---- ---- ---- ---- |
D |2--- ---- 4--- ---- |2-x- ---- ---- ---- |---- ---- ---- ---- |
A |0--- ---- 2--- ---- |2-x- ---- ---- ---- |---- ---- ---- ---- |
E |0--- ---- 2--- ---- |0-x- ---- ---- ---- |---- ---- ---- ---- |
   -         Barré     

Solo: 4 fois de suite

e |---- ---- ---- ---- |---- 0-0- 0-0- ---- |---- ---- ---- ---- |---- ---- ---- ---- |
B |---- ---- ---- ---- |---- 2-2- 2-2- ---- |---- ---- ---- ---- |---- ---- ---- ---- |
G |---- ---- ---- ---- |---- 2-2- 2-2- ---- |---- ---- ---- --2- |---- ---- ---- ---- |
D |---- ---- ---- ---- |---- 2-2- 2-2- ---- |---- ---- 0-0- 4--- |---- --2- ---- 4-2- |
A |---- ---- ---- ---- |---- 0-0- 0-0- ---- |---- --2- ---- ---- |0-0- 4--- 2-2- ---- |
E |0--- ---- ---- ---- |---- 0-0- 0-0- ---- |0-0- 4--- ---- ---- |---- ---- ---- ---- |x4

e |0--- ---- ---- ---- |---- ---- ---- ---- |
B |0--- ---- ---- ---- |---- ---- ---- ---- |
G |1--- ---- ---- ---- |---- ---- ---- ---- |
D |2--- ---- ---- ---- |---- ---- ---- ---- |
A |2--- ---- ---- ---- |---- ---- ---- ---- |
E |0--- ---- ---- ---- |---- ---- ---- ---- |x4 
   -

Refrain:
Riff - x4

e |---- ---- ---- ---- |---- ---- ---- ---- |---- ---- ---- ---- |---- ---- ---- ---- |
B |---- ---- ---- ---- |---- ---- ---- ---- |---- ---- ---- ---- |---- ---- ---- ---- |
G |---- ---- ---- ---- |---- ---- ---- ---- |---- ---- ---- ---- |---- ---- ---- ---- |
D |---- ---- ---- ---- |---- --2- ---- ---- |---- ---- ---- ---- |---- --2- ---- 5--- |
A |---- --2- ---- ---- |0-0- 4--- ---- ---- |---- --2- ---- ---- |0-0- 4--- --4- ---- |
E |0-0- 4--- ---- ---- |---- ---- ---- ---- |0-0- 4--- ---- ---- |---- ---- ---- ---- |x4

Refrain Final: x8

e |2--- ---- ---- ---- |0--- ---- 2--- ---- |0--- ---- ---- 0-2- |---- ---- ---- ---- |
B |2--- ---- ---- ---- |2--- ---- 4--- ---- |0--- ---- ---- 0-2- |---- ---- ---- ---- |
G |3--- ---- ---- ---- |2--- ---- 4--- ---- |1--- ---- ---- 1-3- |---- ---- ---- ---- |
D |4--- ---- ---- ---- |2--- ---- 4--- ---- |2--- ---- ---- 2-4- |---- ---- ---- ---- |
A |4--- ---- ---- ---- |0--- ---- 2--- ---- |2--- ---- ---- 2-4- |---- ---- ---- ---- |
E |2--- ---- ---- ---- |0--- ---- 2--- ---- |0--- ---- ---- 0-2- |---- ---- ---- ---- |
   Barré                -         Barré      -              - Barré

e |0--- ---- 2--- ---- |0--- ---- ---- 0-2- |---- ---- ---- ---- |0--- ---- 2--- ---- |0
B |2--- ---- 4--- ---- |0--- ---- ---- 0-2- |---- ---- ---- ---- |2--- ---- 4--- ---- |0
G |2--- ---- 4--- ---- |1--- ---- ---- 1-3- |---- ---- ---- ---- |2--- ---- 4--- ---- |1
D |2--- ---- 4--- ---- |2--- ---- ---- 2-4- |---- ---- ---- ---- |2--- ---- 4--- ---- |2
A |0--- ---- 2--- ---- |2--- ---- ---- 2-4- |---- ---- ---- ---- |0--- ---- 2--- ---- |2
E |0--- ---- 2--- ---- |0--- ---- ---- 0-2- |---- ---- ---- ---- |0--- ---- 2--- ---- |0
   -         Barré      -              - Barré                    -         Barré      -

[Guitare 2]

Intro:
e |---- ---- ---- ---- |---- ---- ---- ---- |
B |---- ---- ---- ---- |---- ---- ---- ---- |
G |---- ---- ---- --2- |---- ---- ---- ---- |
D |---- ---- 0-0- 4--- |---- --2- ---- 4-2- |
A |---- --2- ---- ---- |0-0- 4--- 2-2- ---- |
E |0-0- 4--- ---- ---- |---- ---- ---- ---- |x4

e |0--- x--- ---- ---- |---- 0-0- 0-0- ---- |---- 0--- ---- 2--- |---- 0-0- 0-0- ---- |
B |0--- x--- ---- ---- |---- 2-2- 2-2- ---- |---- 0--- ---- 3--- |---- 2-2- 2-2- ---- |
G |1--- x--- ---- ---- |---- 2-2- 2-2- ---- |---- 1--- ---- 2--- |---- 2-2- 2-2- ---- |
D |2--- x--- ---- ---- |---- 2-2- 2-2- ---- |---- 2--- ---- 0--- |---- 2-2- 2-2- ---- |
A |2--- x--- ---- ---- |---- 0-0- 0-0- ---- |---- 2--- ---- 0--- |---- 0-0- 0-0- ---- |
E |0--- x--- ---- ---- |---- 0-0- 0-0- ---- |---- 0--- ---- x--- |---- 0-0- 0-0- ---- |x4
   +    +    +    +     +    +    +    +     +    +    +    +     +    +    +    +

   MiM
e |0--- ---- ---- ---- |---- ---- ---- ---- |
B |0--- ---- ---- ---- |---- ---- ---- ---- |
G |1--- ---- ---- ---- |---- ---- ---- ---- |
D |2--- ---- ---- ---- |---- ---- ---- ---- |
A |2--- ---- ---- ---- |---- ---- ---- ---- |
E |0--- ---- ---- ---- |---- ---- ---- ---- |x4  
   -

e |---- 0-0- ---- 2-2 |---- 0-0- ---- 2-2- |
B |---- 0-0- ---- 3-3 |---- 2-2- ---- 4-4- |
G |---- 1-1- ---- 2-2 |---- 2-2- ---- 4-4- |
D |---- 2-2- ---- 0-0 |---- 2-2- ---- 4-4- |
A |---- 2-2- ---- 0-0 |---- 0-0- ---- 2-2- |
E |---- 0-0- ---- x-x |---- 0-0- ---- 2-2- | x4
        -         -         -         Barré

e |2--- ---- ---- ---- |0--- ---- 2--- ---- |0--- ---- ---- 0-2- |---- ---- ---- ---- |
B |2--- ---- ---- ---- |2--- ---- 4--- ---- |0--- ---- ---- 0-2- |---- ---- ---- ---- |
G |3--- ---- ---- ---- |2--- ---- 4--- ---- |1--- ---- ---- 1-3- |---- ---- ---- ---- |
D |4--- ---- ---- ---- |2--- ---- 4--- ---- |2--- ---- ---- 2-4- |---- ---- ---- ---- |
A |4--- ---- ---- ---- |0--- ---- 2--- ---- |2--- ---- ---- 2-4- |---- ---- ---- ---- |
E |2--- ---- ---- ---- |0--- ---- 2--- ---- |0--- ---- ---- 0-2- |---- ---- ---- ---- |
   Barré                -         Barré      -              - Barré

e |0--- ---- 2--- ---- |0-11/12--0-----0-|3-3/4-4/5-5/6-6/|7--- ---- ---- ---- |
B |2--- ---- 4--- ---- |0-x- ------------|----------------|---- ---- ---- ---- |
G |2--- ---- 4--- ---- |1-x- ------------|----------------|---- ---- ---- ---- |
D |2--- ---- 4--- ---- |2-x- ------------|----------------|---- ---- ---- ---- |
A |0--- ---- 2--- ---- |2-x- ------------|----------------|---- ---- ---- ---- |
E |0--- ---- 2--- ---- |0-x- ------------|----------------|---- ---- ---- ---- |
   -         Barré      +    +   +   +    +   +   +   +
 
e |0--- x--- ---- ---- |---- 0-0- 0-0- ---- |---- 0--- ---- 2--- |---- 0-0- 0-0- ---- |
B |0--- x--- ---- ---- |---- 2-2- 2-2- ---- |---- 0--- ---- 3--- |---- 2-2- 2-2- ---- |
G |1--- x--- ---- ---- |---- 2-2- 2-2- ---- |---- 1--- ---- 2--- |---- 2-2- 2-2- ---- |
D |2--- x--- ---- ---- |---- 2-2- 2-2- ---- |---- 2--- ---- 0--- |---- 2-2- 2-2- ---- |
A |2--- x--- ---- ---- |---- 0-0- 0-0- ---- |---- 2--- ---- 0--- |---- 0-0- 0-0- ---- |
E |0--- x--- ---- ---- |---- 0-0- 0-0- ---- |---- 0--- ---- x--- |---- 0-0- 0-0- ---- |x4
e |0--- ---- ---- ---- |---- ---- ---- ---- |
B |0--- ---- ---- ---- |---- ---- ---- ---- |
G |1--- ---- ---- ---- |---- ---- ---- ---- |
D |2--- ---- ---- ---- |---- ---- ---- ---- |
A |2--- ---- ---- ---- |---- ---- ---- ---- |
E |0--- ---- ---- ---- |---- ---- ---- ---- |x4
e |---- 0-0- ---- 2-2 |---- 0-0- ---- 2-2- |
B |---- 0-0- ---- 3-3 |---- 2-2- ---- 4-4- |
G |---- 1-1- ---- 2-2 |---- 2-2- ---- 4-4- |
D |---- 2-2- ---- 0-0 |---- 2-2- ---- 4-4- |
A |---- 2-2- ---- 0-0 |---- 0-0- ---- 2-2- |
E |---- 0-0- ---- x-x |---- 0-0- ---- 2-2- | x4
        -         -         -         Barré

e |---- ---- ---- ---- |---- ---- ---- ---- |---- ---- ---- ---- |---- ---- ---- ---- |
B |---- ---- ---- ---- |---- ---- ---- ---- |---- ---- ---- ---- |---- ---- ---- ---- |
G |---- ---- ---- ---- |---- ---- ---- ---- |---- ---- ---- ---- |---- ---- ---- ---- |
D |---- ---- ---- ---- |---- --2- ---- ---- |---- ---- ---- ---- |---- --2- ---- 5--- |
A |---- --2- ---- ---- |0-0- 4--- ---- ---- |---- --2- ---- ---- |0-0- 4--- --4- ---- |
E |0-0- 4--- ---- ---- |---- ---- ---- ---- |0-0- 4--- ---- ---- |---- ---- ---- ---- |x4