Tommy Emmanuel – Angelina

Share Button

Toutes les tablatures sont ici  http://guitarepourdebutant.fr/tablatures-faciles/

 

Tommy Emmanuel  Angelina

Capo 2
h = hammer on
P = pull off
/ = slide


Tommy Emmanuel /  Angelina

 

e ---0------------------------0-|--------------------0-----0-------|
B --3-------2-----0----------3--|------2-----0-------0----3--------|
G -2-------2-----2-----2----2---|-----2-----2-----2--2---2---------|    (2x)      
D -------0-----0-----0----------|---0------0-----0-----------------|
A -----------------------0------|-----------------------0----------|
D -----0-----4----5-------------|-0-------4-----5------------------|


e -0h2----5---------0-----|
B ---3----2----3----2-----|
G ---2---------4----0-----|
D ---0---------0----2-----|
A -------------5----1-----|
D -0------4----5----------|

 
e -2-3-2------------------|
B -3-----3-----3---3---3--|
G -4-----5-5---2---1---0--|
D -4-----5-----0-------2--|
A -2-----3---------2---0--|
D -------3-----3---2------|

   
e -0h2---5--------0---0-|--2--3--2--/5--2h3p2--0-------------|
B ---3---2----3---3-3---|----------------------0--0--1/3--2--|
G ---2--------2---0-----|--2--4--2--/6--2------1-1---2/4--2--|
D ---0--------4---3-----|----------------------------3/5--2--|
A ------------2---1-----|---------------------------------0--|
D -0-----4--------------|----------------------2-------------|

e -0h2----5---------0----|
B ---3----2----3----2----|
G ---2---------4----0----|
D ---0---------0----2----|
A -------------5----1----|
D -0------4----5---------|

e --2----3----5----7--------------5h77-5-5--------------2----------------2--|
B --3----3----5----5------------------------7-5h6p5--3--3----------------3--|
G --2----2----2----7---------------------6-----------4--2-----------0-2--2--|
D --0--------------5--------------------------5------5--0--4p2p0h2h4-----0--|
A -------2---------5--------------------------3-----------------------------|
D -------2----4----5--------------5------5----------------------------------|

e --------0---0----0-----------0-----0---------0----5/-----|
B ------9---9----------------9---9-----------7---7------3--|
G --------------9------------------9-------7------------1--|
D ---11--------------------10------------7-----------------|
A -------------------------------------0-------------------|
D -11-------------------10------------------------------2--|

e ------------0----5-2------------0--2-h32--2--0--|
B --------023---3----3-p2-------23-------------3--|
G ------02--------2-2--------024---------------3--|
D -------------------4-p2-------------------0--0--|
A -------------------2-------------------------5--|
D -2-4-5----0---4----------5---------2---------5--|

e --------0---0----0-----------0-----0---------0----5/-----|
B ------9---9----------------9---9-----------7---7------3--|
G --------------9------------------9-------7------------1--|
D ---11--------------------10------------7-----------------|
A -------------------------------------0-------------------|
D -11-------------------10------------------------------2--|

e ------------0----5--|
B --------023---3-----|
G ------02--------2---|
D --------------------|
A --------------------|
D -2-4-5----0---4-----|

e -4/5-5-4-2-4/5--10-10-9-7h97--9--5h75--5------3-2-0---------------0-2-2h32-0---0--|
B ---3------------7----------------6------------------3-2-0---0-2-3------------3----|
G ---2------------7-------7h97--9--7-----6------------------2-----------------------|
D ---4------------7----------------0--------(H)7------------------------------------|
A ---2------------7-------------------------(H)7------------------------------------|
D ----------------7-------------------------(h)7------------------------------------|

e -0h2----5---------0-----|
B ---3----2----3----2-----|
G ---2---------4----0-----|
D ---0---------0----2-----|
A -------------5----1-----|
D -0------4----5----------|

e -2-3-2-------------------|
B -3------3-----3---3---3--|
G -4------5-5---2---1---0--|
D -4------5-----0-------2--|
A -2------3---------2---0--|
D --------3-----3---2------|

e -0h2---5--------0---0-|--2--3--2--/5--2h3p2--0-------------|
B ---3---2----3---3-3---|----------------------0--0--1/3--2--|
G ---2--------2---0-----|--2--4--2--/6--2------1-1---2/4--2--|
D ---0--------4---3-----|--0--0--0---0--0------------3/5--2--|
A ------------2---1-----|---------------------------------0--|
D -0-----4--------------|----------------------2-------------|

e -0h2----5---------0----|--2----3----5----7----5h77-5-5--------------2--|
B ---3----2----3----2----|--3----3----5----5--------------7-5h6p5--3--3--|
G ---2---------4----0----|--2----2----2----7-----------6-----------4--2--|
D ---0---------0----2----|--0--------------5----------------5---------0--|
A -------------5----1----|-----------------5----------------3------------|
D -0------4----5---------|-------2----4----5----5------------------3-----|

e -5h77-5-5---------3----------------2---|
B -5---------7-5h65-5-------------3--3---|
G -7------6---------3----------------2---|
D -5-----------5----5-------------5--0---|
A -5----------------3--------------------|
D -5-------------------------------------|

e ----------------12--------12----|
B -------------------7----7-------|
G --------------7------5-------7--|
D -------------7------------------|
A -12---12---7--------------------|
D ----12---5----------------------|

e ----------------12-----------|
B -------------------7---------|
G --------------7--------7-----|
D -------------7-----------7---|
A -12---12---7-----------------|
D ----12---5-------------------|

e ----------------12--------12----|
B -------------------7----7-------|
G --------------7------5-------7--|
D -------------7------------------|
A -12---12---7--------------------|
D ----12---5----------------------|

e --------------------------|
B ---------------(7)--------|
G ------------12------------|
D ---------12--------7------|
A -12---12---------------7--|
D ----12---------------7----|

e -2h32p0---------------0h2--|
B -------2------------3-3----|
G ---------0h20------2--2----|
D --------------4-2-0---0----|
A ----------------------0----|
D ----------------------0----|

 

Soyez le premier à commenter

Poster un Commentaire

Votre adresse de messagerie ne sera pas publiée.




Time limit is exhausted. Please reload CAPTCHA.